  0
SECTION
  2
HEADER
  9
$ACADVER
  1
AC1024
  9
$ACADMAINTVER
 70
     6
  9
$DWGCODEPAGE
  3
UNDEFINED
  9
$INSBASE
 10
0.0
 20
0.0
 30
0.0
  9
$EXTMIN
 10
1.000000000000000E+20
 20
1.000000000000000E+20
 30
1.000000000000000E+20
  9
$EXTMAX
 10
-1.000000000000000E+20
 20
-1.000000000000000E+20
 30
-1.000000000000000E+20
  9
$LIMMIN
 10
0.0
 20
0.0
  9
$LIMMAX
 10
12.0
 20
9.0
  9
$ORTHOMODE
 70
     0
  9
$REGENMODE
 70
     1
  9
$FILLMODE
 70
     1
  9
$QTEXTMODE
 70
     0
  9
$MIRRTEXT
 70
     1
  9
$LTSCALE
 40
1.0
  9
$ATTMODE
 70
     1
  9
$TEXTSIZE
 40
0.2
  9
$TRACEWID
 40
0.05
  9
$TEXTSTYLE
  7
Standard
  9
$CLAYER
  8
0
  9
$CELTYPE
  6
ByLayer
  9
$CECOLOR
 62
   256
  9
$CELTSCALE
 40
1.0
  9
$DISPSILH
 70
     0
  9
$DIMSCALE
 40
1.0
  9
$DIMASZ
 40
0.18
  9
$DIMEXO
 40
0.0625
  9
$DIMDLI
 40
0.38
  9
$DIMRND
 40
0.0
  9
$DIMDLE
 40
0.0
  9
$DIMEXE
 40
0.18
  9
$DIMTP
 40
0.0
  9
$DIMTM
 40
0.0
  9
$DIMTXT
 40
0.18
  9
$DIMCEN
 40
0.09
  9
$DIMTSZ
 40
0.0
  9
$DIMTOL
 70
     0
  9
$DIMLIM
 70
     0
  9
$DIMTIH
 70
     1
  9
$DIMTOH
 70
     1
  9
$DIMSE1
 70
     0
  9
$DIMSE2
 70
     0
  9
$DIMTAD
 70
     0
  9
$DIMZIN
 70
     0
  9
$DIMBLK
  1

  9
$DIMASO
 70
     1
  9
$DIMSHO
 70
     1
  9
$DIMPOST
  1

  9
$DIMAPOST
  1

  9
$DIMALT
 70
     0
  9
$DIMALTD
 70
     2
  9
$DIMALTF
 40
25.4
  9
$DIMLFAC
 40
1.0
  9
$DIMTOFL
 70
     0
  9
$DIMTVP
 40
0.0
  9
$DIMTIX
 70
     0
  9
$DIMSOXD
 70
     0
  9
$DIMSAH
 70
     0
  9
$DIMBLK1
  1

  9
$DIMBLK2
  1

  9
$DIMSTYLE
  2
Standard
  9
$DIMCLRD
 70
     0
  9
$DIMCLRE
 70
     0
  9
$DIMCLRT
 70
     0
  9
$DIMTFAC
 40
1.0
  9
$DIMGAP
 40
0.09
  9
$DIMJUST
 70
     0
  9
$DIMSD1
 70
     0
  9
$DIMSD2
 70
     0
  9
$DIMTOLJ
 70
     1
  9
$DIMTZIN
 70
     0
  9
$DIMALTZ
 70
     0
  9
$DIMALTTZ
 70
     0
  9
$DIMUPT
 70
     0
  9
$DIMDEC
 70
     4
  9
$DIMTDEC
 70
     4
  9
$DIMALTU
 70
     2
  9
$DIMALTTD
 70
     2
  9
$DIMTXSTY
  7
Standard
  9
$DIMAUNIT
 70
     0
  9
$DIMADEC
 70
     0
  9
$DIMALTRND
 40
0.0
  9
$DIMAZIN
 70
     0
  9
$DIMDSEP
 70
    46
  9
$DIMATFIT
 70
     3
  9
$DIMFRAC
 70
     0
  9
$DIMLDRBLK
  1

  9
$DIMLUNIT
 70
     2
  9
$DIMLWD
 70
    -2
  9
$DIMLWE
 70
    -2
  9
$DIMTMOVE
 70
     0
  9
$DIMFXL
 40
1.0
  9
$DIMFXLON
 70
     0
  9
$DIMJOGANG
 40
0.7853981633974483
  9
$DIMTFILL
 70
     0
  9
$DIMTFILLCLR
 70
     0
  9
$DIMARCSYM
 70
     0
  9
$DIMLTYPE
  6

  9
$DIMLTEX1
  6

  9
$DIMLTEX2
  6

  9
$DIMTXTDIRECTION
 70
     0
  9
$LUNITS
 70
     2
  9
$LUPREC
 70
     4
  9
$SKETCHINC
 40
0.1
  9
$FILLETRAD
 40
0.5
  9
$AUNITS
 70
     0
  9
$AUPREC
 70
     0
  9
$MENU
  1
.
  9
$ELEVATION
 40
0.0
  9
$PELEVATION
 40
0.0
  9
$THICKNESS
 40
0.0
  9
$LIMCHECK
 70
     0
  9
$CHAMFERA
 40
0.5
  9
$CHAMFERB
 40
0.5
  9
$CHAMFERC
 40
1.0
  9
$CHAMFERD
 40
0.0
  9
$SKPOLY
 70
     0
  9
$TDCREATE
 40
2458620.504930544
  9
$TDUCREATE
 40
2458620.463263889
  9
$TDUPDATE
 40
2458620.504930544
  9
$TDUUPDATE
 40
2458620.463263889
  9
$TDINDWG
 40
0.0000000116
  9
$TDUSRTIMER
 40
0.0000000116
  9
$USRTIMER
 70
     1
  9
$ANGBASE
 50
0.0
  9
$ANGDIR
 70
     0
  9
$PDMODE
 70
     0
  9
$PDSIZE
 40
0.0
  9
$PLINEWID
 40
0.0
  9
$SPLFRAME
 70
     0
  9
$SPLINETYPE
 70
     6
  9
$SPLINESEGS
 70
     8
  9
$HANDSEED
  5
427
  9
$SURFTAB1
 70
     6
  9
$SURFTAB2
 70
     6
  9
$SURFTYPE
 70
     6
  9
$SURFU
 70
     6
  9
$SURFV
 70
     6
  9
$UCSBASE
  2

  9
$UCSNAME
  2

  9
$UCSORG
 10
0.0
 20
0.0
 30
0.0
  9
$UCSXDIR
 10
1.0
 20
0.0
 30
0.0
  9
$UCSYDIR
 10
0.0
 20
1.0
 30
0.0
  9
$UCSORTHOREF
  2

  9
$UCSORTHOVIEW
 70
     0
  9
$UCSORGTOP
 10
0.0
 20
0.0
 30
0.0
  9
$UCSORGBOTTOM
 10
0.0
 20
0.0
 30
0.0
  9
$UCSORGLEFT
 10
0.0
 20
0.0
 30
0.0
  9
$UCSORGRIGHT
 10
0.0
 20
0.0
 30
0.0
  9
$UCSORGFRONT
 10
0.0
 20
0.0
 30
0.0
  9
$UCSORGBACK
 10
0.0
 20
0.0
 30
0.0
  9
$PUCSBASE
  2

  9
$PUCSNAME
  2

  9
$PUCSORG
 10
0.0
 20
0.0
 30
0.0
  9
$PUCSXDIR
 10
1.0
 20
0.0
 30
0.0
  9
$PUCSYDIR
 10
0.0
 20
1.0
 30
0.0
  9
$PUCSORTHOREF
  2

  9
$PUCSORTHOVIEW
 70
     0
  9
$PUCSORGTOP
 10
0.0
 20
0.0
 30
0.0
  9
$PUCSORGBOTTOM
 10
0.0
 20
0.0
 30
0.0
  9
$PUCSORGLEFT
 10
0.0
 20
0.0
 30
0.0
  9
$PUCSORGRIGHT
 10
0.0
 20
0.0
 30
0.0
  9
$PUCSORGFRONT
 10
0.0
 20
0.0
 30
0.0
  9
$PUCSORGBACK
 10
0.0
 20
0.0
 30
0.0
  9
$USERI1
 70
     0
  9
$USERI2
 70
     0
  9
$USERI3
 70
     0
  9
$USERI4
 70
     0
  9
$USERI5
 70
     0
  9
$USERR1
 40
0.0
  9
$USERR2
 40
0.0
  9
$USERR3
 40
0.0
  9
$USERR4
 40
0.0
  9
$USERR5
 40
0.0
  9
$WORLDVIEW
 70
     1
  9
$SHADEDGE
 70
     3
  9
$SHADEDIF
 70
    70
  9
$TILEMODE
 70
     1
  9
$MAXACTVP
 70
    64
  9
$PINSBASE
 10
0.0
 20
0.0
 30
0.0
  9
$PLIMCHECK
 70
     0
  9
$PEXTMIN
 10
1.000000000000000E+20
 20
1.000000000000000E+20
 30
1.000000000000000E+20
  9
$PEXTMAX
 10
-1.000000000000000E+20
 20
-1.000000000000000E+20
 30
-1.000000000000000E+20
  9
$PLIMMIN
 10
0.0
 20
0.0
  9
$PLIMMAX
 10
12.0
 20
9.0
  9
$UNITMODE
 70
     0
  9
$VISRETAIN
 70
     1
  9
$PLINEGEN
 70
     0
  9
$PSLTSCALE
 70
     1
  9
$TREEDEPTH
 70
  3020
  9
$CMLSTYLE
  2
Standard
  9
$CMLJUST
 70
     0
  9
$CMLSCALE
 40
1.0
  9
$PROXYGRAPHICS
 70
     1
  9
$MEASUREMENT
 70
     0
  9
$CELWEIGHT
370
    -1
  9
$ENDCAPS
280
     0
  9
$JOINSTYLE
280
     0
  9
$LWDISPLAY
290
     1
  9
$INSUNITS
 70
     1
  9
$HYPERLINKBASE
  1

  9
$STYLESHEET
  1

  9
$XEDIT
290
     1
  9
$CEPSNTYPE
380
     0
  9
$PSTYLEMODE
290
     1
  9
$FINGERPRINTGUID
  2
{4BD11B73-603F-2A51-5292-8B099AA3D7CB}
  9
$VERSIONGUID
  2
{FAEB1C32-E019-11D5-929B-00C0DF256EC4}
  9
$EXTNAMES
290
     1
  9
$PSVPSCALE
 40
0.0
  9
$OLESTARTUP
290
     0
  9
$SORTENTS
280
   127
  9
$INDEXCTL
280
     0
  9
$HIDETEXT
280
     1
  9
$XCLIPFRAME
280
     2
  9
$HALOGAP
280
     0
  9
$OBSCOLOR
 70
   257
  9
$OBSLTYPE
280
     0
  9
$INTERSECTIONDISPLAY
280
     0
  9
$INTERSECTIONCOLOR
 70
   257
  9
$DIMASSOC
280
     2
  9
$PROJECTNAME
  1

  9
$CAMERADISPLAY
290
     0
  9
$LENSLENGTH
 40
50.0
  9
$CAMERAHEIGHT
 40
0.0
  9
$STEPSPERSEC
 40
2.0
  9
$STEPSIZE
 40
6.0
  9
$3DDWFPREC
 40
2.0
  9
$PSOLWIDTH
 40
0.25
  9
$PSOLHEIGHT
 40
4.0
  9
$LOFTANG1
 40
1.570796326794897
  9
$LOFTANG2
 40
1.570796326794897
  9
$LOFTMAG1
 40
0.0
  9
$LOFTMAG2
 40
0.0
  9
$LOFTPARAM
 70
     7
  9
$LOFTNORMALS
280
     1
  9
$LATITUDE
 40
37.795
  9
$LONGITUDE
 40
-122.394
  9
$NORTHDIRECTION
 40
0.0
  9
$TIMEZONE
 70
 -8000
  9
$LIGHTGLYPHDISPLAY
280
     1
  9
$TILEMODELIGHTSYNCH
280
     1
  9
$CMATERIAL
347
3C
  9
$SOLIDHIST
280
     1
  9
$SHOWHIST
280
     1
  9
$DWFFRAME
280
     2
  9
$DGNFRAME
280
     2
  9
$REALWORLDSCALE
290
     1
  9
$INTERFERECOLOR
 62
   256
  9
$CSHADOW
280
     0
  9
$SHADOWPLANELOCATION
 40
0.0
  0
ENDSEC
  0
SECTION
  2
CLASSES
  0
CLASS
  1
ACDBDICTIONARYWDFLT
  2
AcDbDictionaryWithDefault
  3
ObjectDBX Classes
 90
        0
 91
        4
280
     0
281
     0
  0
CLASS
  1
VISUALSTYLE
  2
AcDbVisualStyle
  3
ObjectDBX Classes
 90
     4095
 91
        4
280
     0
281
     0
  0
CLASS
  1
MATERIAL
  2
AcDbMaterial
  3
ObjectDBX Classes
 90
     1153
 91
        4
280
     0
281
     0
  0
CLASS
  1
SUN
  2
AcDbSun
  3
SCENEOE
 90
     1024
 91
        4
280
     0
281
     0
  0
ENDSEC
  0
SECTION
  2
TABLES
  0
TABLE
  2
VPORT
  5
8
330
0
100
AcDbSymbolTable
 70
     1
  0
VPORT
  5
29
330
8
100
AcDbSymbolTableRecord
100
AcDbViewportTableRecord
  2
*Active
 70
     0
 10
0.0
 20
0.0
 11
1.0
 21
1.0
 12
0.0
 22
0.0
 13
0.0
 23
0.0
 14
0.5
 24
0.5
 15
0.5
 25
0.5
 16
0.0
 26
0.0
 36
1.0
 17
250.0
 27
250.0
 37
0.0
 40
500.0
 41
1.0
 42
50.0
 43
0.0
 44
0.0
 50
0.0
 51
0.0
 71
     0
 72
   100
 73
     1
 74
     3
 75
     0
 76
     0
 77
     0
 78
     0
281
     0
 65
     1
110
0.0
120
0.0
130
0.0
111
1.0
121
0.0
131
0.0
112
0.0
122
1.0
132
0.0
 79
     0
146
0.0
 60
     3
 61
     5
292
     1
282
     1
141
0.0
142
0.0
 63
   250
361
3F
  0
ENDTAB
  0
TABLE
  2
LTYPE
  5
5
330
0
100
AcDbSymbolTable
 70
     8
  0
LTYPE
  5
14
330
5
100
AcDbSymbolTableRecord
100
AcDbLinetypeTableRecord
  2
ByBlock
 70
     0
  3

 72
    65
 73
     0
 40
0.0
  0
LTYPE
  5
15
330
5
100
AcDbSymbolTableRecord
100
AcDbLinetypeTableRecord
  2
ByLayer
 70
     0
  3

 72
    65
 73
     0
 40
0.0
  0
LTYPE
  5
16
330
5
100
AcDbSymbolTableRecord
100
AcDbLinetypeTableRecord
  2
Continuous
 70
     0
  3
Solid line
 72
    65
 73
     0
 40
0.0
  0
LTYPE
  5
E4
330
5
100
AcDbSymbolTableRecord
100
AcDbLinetypeTableRecord
  2
AI-Linetype-1
 70
     0
  3
Adobe Illustrator Linetype No. 1
 72
    65
 73
     2
 40
0.5759435892105103
 49
0.3839623928070068
 74
     0
 49
-0.1919811964035034
 74
     0
  0
LTYPE
  5
ED
330
5
100
AcDbSymbolTableRecord
100
AcDbLinetypeTableRecord
  2
AI-Linetype-2
 70
     0
  3
Adobe Illustrator Linetype No. 2
 72
    65
 73
     2
 40
0.5759435892105103
 49
0.3839623928070068
 74
     0
 49
-0.1919811964035034
 74
     0
  0
LTYPE
  5
F6
330
5
100
AcDbSymbolTableRecord
100
AcDbLinetypeTableRecord
  2
AI-Linetype-3
 70
     0
  3
Adobe Illustrator Linetype No. 3
 72
    65
 73
     2
 40
0.5759435892105103
 49
0.3839623928070068
 74
     0
 49
-0.1919811964035034
 74
     0
  0
LTYPE
  5
FF
330
5
100
AcDbSymbolTableRecord
100
AcDbLinetypeTableRecord
  2
AI-Linetype-4
 70
     0
  3
Adobe Illustrator Linetype No. 4
 72
    65
 73
     2
 40
0.5759435892105103
 49
0.3839623928070068
 74
     0
 49
-0.1919811964035034
 74
     0
  0
LTYPE
  5
108
330
5
100
AcDbSymbolTableRecord
100
AcDbLinetypeTableRecord
  2
AI-Linetype-5
 70
     0
  3
Adobe Illustrator Linetype No. 5
 72
    65
 73
     2
 40
0.5759435892105103
 49
0.3839623928070068
 74
     0
 49
-0.1919811964035034
 74
     0
  0
LTYPE
  5
111
330
5
100
AcDbSymbolTableRecord
100
AcDbLinetypeTableRecord
  2
AI-Linetype-6
 70
     0
  3
Adobe Illustrator Linetype No. 6
 72
    65
 73
     2
 40
0.5759435892105103
 49
0.3839623928070068
 74
     0
 49
-0.1919811964035034
 74
     0
  0
LTYPE
  5
11A
330
5
100
AcDbSymbolTableRecord
100
AcDbLinetypeTableRecord
  2
AI-Linetype-7
 70
     0
  3
Adobe Illustrator Linetype No. 7
 72
    65
 73
     2
 40
0.5759435892105103
 49
0.3839623928070068
 74
     0
 49
-0.1919811964035034
 74
     0
  0
ENDTAB
  0
TABLE
  2
LAYER
  5
2
330
0
100
AcDbSymbolTable
 70
     5
  0
LAYER
  5
10
330
2
100
AcDbSymbolTableRecord
100
AcDbLayerTableRecord
  2
0
 70
     0
 62
     7
  6
Continuous
370
    -3
390
F
347
3E
  0
LAYER
  5
40
330
2
100
AcDbSymbolTableRecord
100
AcDbLayerTableRecord
  2
_U+5916_U+6846_U+7EBF1
 70
     0
 62
     7
  6
Continuous
370
    -3
390
F
347
3E
  0
LAYER
  5
12E
330
2
100
AcDbSymbolTableRecord
100
AcDbLayerTableRecord
  2
_U+5916_U+6846_U+7EBF4
 70
     0
 62
     7
  6
Continuous
370
    -3
390
F
347
3E
  0
LAYER
  5
1A1
330
2
100
AcDbSymbolTableRecord
100
AcDbLayerTableRecord
  2
_U+6807_U+6CE8
 70
     0
 62
     7
  6
Continuous
370
    -3
390
F
347
3E
  0
LAYER
  5
35C
330
2
100
AcDbSymbolTableRecord
100
AcDbLayerTableRecord
  2
Defpoints
 70
     0
 62
     7
  6
Continuous
290
     0
370
    -3
390
F
347
3E
  0
ENDTAB
  0
TABLE
  2
STYLE
  5
3
330
0
100
AcDbSymbolTable
 70
     1
  0
STYLE
  5
11
330
3
100
AcDbSymbolTableRecord
100
AcDbTextStyleTableRecord
  2
Standard
 70
     0
 40
0.0
 41
1.0
 50
0.0
 71
     0
 42
0.2
  3
txt
  4

  0
ENDTAB
  0
TABLE
  2
VIEW
  5
6
330
0
100
AcDbSymbolTable
 70
     0
  0
ENDTAB
  0
TABLE
  2
UCS
  5
7
330
0
100
AcDbSymbolTable
 70
     0
  0
ENDTAB
  0
TABLE
  2
APPID
  5
9
330
0
100
AcDbSymbolTable
 70
     1
  0
APPID
  5
12
330
9
100
AcDbSymbolTableRecord
100
AcDbRegAppTableRecord
  2
ACAD
 70
     0
  0
ENDTAB
  0
TABLE
  2
DIMSTYLE
  5
A
330
0
100
AcDbSymbolTable
 70
     1
100
AcDbDimStyleTable
  0
DIMSTYLE
105
27
330
A
100
AcDbSymbolTableRecord
100
AcDbDimStyleTableRecord
  2
Standard
 70
     0
178
     0
340
11
  0
ENDTAB
  0
TABLE
  2
BLOCK_RECORD
  5
1
330
0
100
AcDbSymbolTable
 70
   123
  0
BLOCK_RECORD
  5
1F
330
1
100
AcDbSymbolTableRecord
100
AcDbBlockTableRecord
  2
*Model_Space
340
22
 70
     0
280
     1
281
     0
  0
BLOCK_RECORD
  5
1B
330
1
100
AcDbSymbolTableRecord
100
AcDbBlockTableRecord
  2
*Paper_Space
340
1E
 70
     0
280
     1
281
     0
  0
BLOCK_RECORD
  5
23
330
1
100
AcDbSymbolTableRecord
100
AcDbBlockTableRecord
  2
*Paper_Space0
340
26
 70
     0
280
     1
281
     0
  0
BLOCK_RECORD
  5
41
330
1
100
AcDbSymbolTableRecord
100
AcDbBlockTableRecord
  2
block 2
340
0
102
{BLKREFS
331
42
102
}
 70
     0
280
     1
281
     0
  0
BLOCK_RECORD
  5
49
330
1
100
AcDbSymbolTableRecord
100
AcDbBlockTableRecord
  2
block 3
340
0
102
{BLKREFS
331
4A
102
}
 70
     0
280
     1
281
     0
  0
BLOCK_RECORD
  5
51
330
1
100
AcDbSymbolTableRecord
100
AcDbBlockTableRecord
  2
block 4
340
0
102
{BLKREFS
331
52
102
}
 70
     0
280
     1
281
     0
  0
BLOCK_RECORD
  5
59
330
1
100
AcDbSymbolTableRecord
100
AcDbBlockTableRecord
  2
block 5
340
0
102
{BLKREFS
331
5A
102
}
 70
     0
280
     1
281
     0
  0
BLOCK_RECORD
  5
61
330
1
100
AcDbSymbolTableRecord
100
AcDbBlockTableRecord
  2
block 6
340
0
102
{BLKREFS
331
62
102
}
 70
     0
280
     1
281
     0
  0
BLOCK_RECORD
  5
66
330
1
100
AcDbSymbolTableRecord
100
AcDbBlockTableRecord
  2
block 7
340
0
102
{BLKREFS
331
67
102
}
 70
     0
280
     1
281
     0
  0
BLOCK_RECORD
  5
6B
330
1
100
AcDbSymbolTableRecord
100
AcDbBlockTableRecord
  2
block 8
340
0
102
{BLKREFS
331
6C
102
}
 70
     0
280
     1
281
     0
  0
BLOCK_RECORD
  5
70
330
1
100
AcDbSymbolTableRecord
100
AcDbBlockTableRecord
  2
block 9
340
0
102
{BLKREFS
331
71
102
}
 70
     0
280
     1
281
     0
  0
BLOCK_RECORD
  5
75
330
1
100
AcDbSymbolTableRecord
100
AcDbBlockTableRecord
  2
block 10
340
0
102
{BLKREFS
331
76
102
}
 70
     0
280
     1
281
     0
  0
BLOCK_RECORD
  5
7D
330
1
100
AcDbSymbolTableRecord
100
AcDbBlockTableRecord
  2
block 11
340
0
102
{BLKREFS
331
7E
102
}
 70
     0
280
     1
281
     0
  0
BLOCK_RECORD
  5
82
330
1
100
AcDbSymbolTableRecord
100
AcDbBlockTableRecord
  2
block 12
340
0
102
{BLKREFS
331
83
102
}
 70
     0
280
     1
281
     0
  0
BLOCK_RECORD
  5
8A
330
1
100
AcDbSymbolTableRecord
100
AcDbBlockTableRecord
  2
block 13
340
0
102
{BLKREFS
331
8B
102
}
 70
     0
280
     1
281
     0
  0
BLOCK_RECORD
  5
8F
330
1
100
AcDbSymbolTableRecord
100
AcDbBlockTableRecord
  2
block 14
340
0
102
{BLKREFS
331
90
102
}
 70
     0
280
     1
281
     0
  0
BLOCK_RECORD
  5
97
330
1
100
AcDbSymbolTableRecord
100
AcDbBlockTableRecord
  2
block 15
340
0
102
{BLKREFS
331
98
102
}
 70
     0
280
     1
281
     0
  0
BLOCK_RECORD
  5
9C
330
1
100
AcDbSymbolTableRecord
100
AcDbBlockTableRecord
  2
block 16
340
0
102
{BLKREFS
331
9D
102
}
 70
     0
280
     1
281
     0
  0
BLOCK_RECORD
  5
A4
330
1
100
AcDbSymbolTableRecord
100
AcDbBlockTableRecord
  2
block 17
340
0
102
{BLKREFS
331
A5
102
}
 70
     0
280
     1
281
     0
  0
BLOCK_RECORD
  5
A9
330
1
100
AcDbSymbolTableRecord
100
AcDbBlockTableRecord
  2
block 18
340
0
102
{BLKREFS
331
AA
102
}
 70
     0
280
     1
281
     0
  0
BLOCK_RECORD
  5
B1
330
1
100
AcDbSymbolTableRecord
100
AcDbBlockTableRecord
  2
block 19
340
0
102
{BLKREFS
331
B2
102
}
 70
     0
280
     1
281
     0
  0
BLOCK_RECORD
  5
B6
330
1
100
AcDbSymbolTableRecord
100
AcDbBlockTableRecord
  2
block 20
340
0
102
{BLKREFS
331
B7
102
}
 70
     0
280
     1
281
     0
  0
BLOCK_RECORD
  5
BE
330
1
100
AcDbSymbolTableRecord
100
AcDbBlockTableRecord
  2
block 21
340
0
102
{BLKREFS
331
BF
102
}
 70
     0
280
     1
281
     0
  0
BLOCK_RECORD
  5
C3
330
1
100
AcDbSymbolTableRecord
100
AcDbBlockTableRecord
  2
block 22
340
0
102
{BLKREFS
331
C4
102
}
 70
     0
280
     1
281
     0
  0
BLOCK_RECORD
  5
CB
330
1
100
AcDbSymbolTableRecord
100
AcDbBlockTableRecord
  2
block 23
340
0
102
{BLKREFS
331
CC
102
}
 70
     0
280
     1
281
     0
  0
BLOCK_RECORD
  5
D0
330
1
100
AcDbSymbolTableRecord
100
AcDbBlockTableRecord
  2
block 24
340
0
102
{BLKREFS
331
D1
102
}
 70
     0
280
     1
281
     0
  0
BLOCK_RECORD
  5
D8
330
1
100
AcDbSymbolTableRecord
100
AcDbBlockTableRecord
  2
block 25
340
0
102
{BLKREFS
331
D9
102
}
 70
     0
280
     1
281
     0
  0
BLOCK_RECORD
  5
DD
330
1
100
AcDbSymbolTableRecord
100
AcDbBlockTableRecord
  2
block 26
340
0
102
{BLKREFS
331
DE
102
}
 70
     0
280
     1
281
     0
  0
BLOCK_RECORD
  5
E6
330
1
100
AcDbSymbolTableRecord
100
AcDbBlockTableRecord
  2
block 27
340
0
102
{BLKREFS
331
E7
102
}
 70
     0
280
     1
281
     0
  0
BLOCK_RECORD
  5
EF
330
1
100
AcDbSymbolTableRecord
100
AcDbBlockTableRecord
  2
block 28
340
0
102
{BLKREFS
331
F0
102
}
 70
     0
280
     1
281
     0
  0
BLOCK_RECORD
  5
F8
330
1
100
AcDbSymbolTableRecord
100
AcDbBlockTableRecord
  2
block 29
340
0
102
{BLKREFS
331
F9
102
}
 70
     0
280
     1
281
     0
  0
BLOCK_RECORD
  5
101
330
1
100
AcDbSymbolTableRecord
100
AcDbBlockTableRecord
  2
block 30
340
0
102
{BLKREFS
331
102
102
}
 70
     0
280
     1
281
     0
  0
BLOCK_RECORD
  5
10A
330
1
100
AcDbSymbolTableRecord
100
AcDbBlockTableRecord
  2
block 31
340
0
102
{BLKREFS
331
10B
102
}
 70
     0
280
     1
281
     0
  0
BLOCK_RECORD
  5
113
330
1
100
AcDbSymbolTableRecord
100
AcDbBlockTableRecord
  2
block 32
340
0
102
{BLKREFS
331
114
102
}
 70
     0
280
     1
281
     0
  0
BLOCK_RECORD
  5
11C
330
1
100
AcDbSymbolTableRecord
100
AcDbBlockTableRecord
  2
block 33
340
0
102
{BLKREFS
331
11D
102
}
 70
     0
280
     1
281
     0
  0
BLOCK_RECORD
  5
124
330
1
100
AcDbSymbolTableRecord
100
AcDbBlockTableRecord
  2
block 34
340
0
102
{BLKREFS
331
125
102
}
 70
     0
280
     1
281
     0
  0
BLOCK_RECORD
  5
129
330
1
100
AcDbSymbolTableRecord
100
AcDbBlockTableRecord
  2
block 35
340
0
102
{BLKREFS
331
12A
102
}
 70
     0
280
     1
281
     0
  0
BLOCK_RECORD
  5
12F
330
1
100
AcDbSymbolTableRecord
100
AcDbBlockTableRecord
  2
block 36
340
0
102
{BLKREFS
331
130
102
}
 70
     0
280
     1
281
     0
  0
BLOCK_RECORD
  5
13A
330
1
100
AcDbSymbolTableRecord
100
AcDbBlockTableRecord
  2
block 37
340
0
102
{BLKREFS
331
13B
102
}
 70
     0
280
     1
281
     0
  0
BLOCK_RECORD
  5
145
330
1
100
AcDbSymbolTableRecord
100
AcDbBlockTableRecord
  2
block 38
340
0
102
{BLKREFS
331
146
102
}
 70
     0
280
     1
281
     0
  0
BLOCK_RECORD
  5
150
330
1
100
AcDbSymbolTableRecord
100
AcDbBlockTableRecord
  2
block 39
340
0
102
{BLKREFS
331
151
102
}
 70
     0
280
     1
281
     0
  0
BLOCK_RECORD
  5
15B
330
1
100
AcDbSymbolTableRecord
100
AcDbBlockTableRecord
  2
block 40
340
0
102
{BLKREFS
331
15C
102
}
 70
     0
280
     1
281
     0
  0
BLOCK_RECORD
  5
166
330
1
100
AcDbSymbolTableRecord
100
AcDbBlockTableRecord
  2
block 41
340
0
102
{BLKREFS
331
167
102
}
 70
     0
280
     1
281
     0
  0
BLOCK_RECORD
  5
171
330
1
100
AcDbSymbolTableRecord
100
AcDbBlockTableRecord
  2
block 42
340
0
102
{BLKREFS
331
172
102
}
 70
     0
280
     1
281
     0
  0
BLOCK_RECORD
  5
17C
330
1
100
AcDbSymbolTableRecord
100
AcDbBlockTableRecord
  2
block 43
340
0
102
{BLKREFS
331
17D
102
}
 70
     0
280
     1
281
     0
  0
BLOCK_RECORD
  5
189
330
1
100
AcDbSymbolTableRecord
100
AcDbBlockTableRecord
  2
block 44
340
0
102
{BLKREFS
331
18A
102
}
 70
     0
280
     1
281
     0
  0
BLOCK_RECORD
  5
194
330
1
100
AcDbSymbolTableRecord
100
AcDbBlockTableRecord
  2
block 45
340
0
102
{BLKREFS
331
195
102
}
 70
     0
280
     1
281
     0
  0
BLOCK_RECORD
  5
1A2
330
1
100
AcDbSymbolTableRecord
100
AcDbBlockTableRecord
  2
block 46
340
0
102
{BLKREFS
331
1A3
102
}
 70
     0
280
     1
281
     0
  0
BLOCK_RECORD
  5
1AA
330
1
100
AcDbSymbolTableRecord
100
AcDbBlockTableRecord
  2
block 47
340
0
102
{BLKREFS
331
1AB
102
}
 70
     0
280
     1
281
     0
  0
BLOCK_RECORD
  5
1B2
330
1
100
AcDbSymbolTableRecord
100
AcDbBlockTableRecord
  2
block 48
340
0
102
{BLKREFS
331
1B3
102
}
 70
     0
280
     1
281
     0
  0
BLOCK_RECORD
  5
1BA
330
1
100
AcDbSymbolTableRecord
100
AcDbBlockTableRecord
  2
block 49
340
0
102
{BLKREFS
331
1BB
102
}
 70
     0
280
     1
281
     0
  0
BLOCK_RECORD
  5
1C5
330
1
100
AcDbSymbolTableRecord
100
AcDbBlockTableRecord
  2
block 50
340
0
102
{BLKREFS
331
1C6
102
}
 70
     0
280
     1
281
     0
  0
BLOCK_RECORD
  5
1D0
330
1
100
AcDbSymbolTableRecord
100
AcDbBlockTableRecord
  2
block 51
340
0
102
{BLKREFS
331
1D1
102
}
 70
     0
280
     1
281
     0
  0
BLOCK_RECORD
  5
1D5
330
1
100
AcDbSymbolTableRecord
100
AcDbBlockTableRecord
  2
block 52
340
0
102
{BLKREFS
331
1D6
102
}
 70
     0
280
     1
281
     0
  0
BLOCK_RECORD
  5
1DD
330
1
100
AcDbSymbolTableRecord
100
AcDbBlockTableRecord
  2
block 53
340
0
102
{BLKREFS
331
1DE
102
}
 70
     0
280
     1
281
     0
  0
BLOCK_RECORD
  5
1E5
330
1
100
AcDbSymbolTableRecord
100
AcDbBlockTableRecord
  2
block 54
340
0
102
{BLKREFS
331
1E6
102
}
 70
     0
280
     1
281
     0
  0
BLOCK_RECORD
  5
1ED
330
1
100
AcDbSymbolTableRecord
100
AcDbBlockTableRecord
  2
block 55
340
0
102
{BLKREFS
331
1EE
102
}
 70
     0
280
     1
281
     0
  0
BLOCK_RECORD
  5
1F8
330
1
100
AcDbSymbolTableRecord
100
AcDbBlockTableRecord
  2
block 56
340
0
102
{BLKREFS
331
1F9
102
}
 70
     0
280
     1
281
     0
  0
BLOCK_RECORD
  5
203
330
1
100
AcDbSymbolTableRecord
100
AcDbBlockTableRecord
  2
block 57
340
0
102
{BLKREFS
331
204
102
}
 70
     0
280
     1
281
     0
  0
BLOCK_RECORD
  5
208
330
1
100
AcDbSymbolTableRecord
100
AcDbBlockTableRecord
  2
block 58
340
0
102
{BLKREFS
331
209
102
}
 70
     0
280
     1
281
     0
  0
BLOCK_RECORD
  5
210
330
1
100
AcDbSymbolTableRecord
100
AcDbBlockTableRecord
  2
block 59
340
0
102
{BLKREFS
331
211
102
}
 70
     0
280
     1
281
     0
  0
BLOCK_RECORD
  5
218
330
1
100
AcDbSymbolTableRecord
100
AcDbBlockTableRecord
  2
block 60
340
0
102
{BLKREFS
331
219
102
}
 70
     0
280
     1
281
     0
  0
BLOCK_RECORD
  5
220
330
1
100
AcDbSymbolTableRecord
100
AcDbBlockTableRecord
  2
block 61
340
0
102
{BLKREFS
331
221
102
}
 70
     0
280
     1
281
     0
  0
BLOCK_RECORD
  5
22B
330
1
100
AcDbSymbolTableRecord
100
AcDbBlockTableRecord
  2
block 62
340
0
102
{BLKREFS
331
22C
102
}
 70
     0
280
     1
281
     0
  0
BLOCK_RECORD
  5
236
330
1
100
AcDbSymbolTableRecord
100
AcDbBlockTableRecord
  2
block 63
340
0
102
{BLKREFS
331
237
102
}
 70
     0
280
     1
281
     0
  0
BLOCK_RECORD
  5
23B
330
1
100
AcDbSymbolTableRecord
100
AcDbBlockTableRecord
  2
block 64
340
0
102
{BLKREFS
331
23C
102
}
 70
     0
280
     1
281
     0
  0
BLOCK_RECORD
  5
243
330
1
100
AcDbSymbolTableRecord
100
AcDbBlockTableRecord
  2
block 65
340
0
102
{BLKREFS
331
244
102
}
 70
     0
280
     1
281
     0
  0
BLOCK_RECORD
  5
24B
330
1
100
AcDbSymbolTableRecord
100
AcDbBlockTableRecord
  2
block 66
340
0
102
{BLKREFS
331
24C
102
}
 70
     0
280
     1
281
     0
  0
BLOCK_RECORD
  5
253
330
1
100
AcDbSymbolTableRecord
100
AcDbBlockTableRecord
  2
block 67
340
0
102
{BLKREFS
331
254
102
}
 70
     0
280
     1
281
     0
  0
BLOCK_RECORD
  5
25E
330
1
100
AcDbSymbolTableRecord
100
AcDbBlockTableRecord
  2
block 68
340
0
102
{BLKREFS
331
25F
102
}
 70
     0
280
     1
281
     0
  0
BLOCK_RECORD
  5
269
330
1
100
AcDbSymbolTableRecord
100
AcDbBlockTableRecord
  2
block 69
340
0
102
{BLKREFS
331
26A
102
}
 70
     0
280
     1
281
     0
  0
BLOCK_RECORD
  5
26E
330
1
100
AcDbSymbolTableRecord
100
AcDbBlockTableRecord
  2
block 70
340
0
102
{BLKREFS
331
26F
102
}
 70
     0
280
     1
281
     0
  0
BLOCK_RECORD
  5
276
330
1
100
AcDbSymbolTableRecord
100
AcDbBlockTableRecord
  2
block 71
340
0
102
{BLKREFS
331
277
102
}
 70
     0
280
     1
281
     0
  0
BLOCK_RECORD
  5
27E
330
1
100
AcDbSymbolTableRecord
100
AcDbBlockTableRecord
  2
block 72
340
0
102
{BLKREFS
331
27F
102
}
 70
     0
280
     1
281
     0
  0
BLOCK_RECORD
  5
286
330
1
100
AcDbSymbolTableRecord
100
AcDbBlockTableRecord
  2
block 73
340
0
102
{BLKREFS
331
287
102
}
 70
     0
280
     1
281
     0
  0
BLOCK_RECORD
  5
291
330
1
100
AcDbSymbolTableRecord
100
AcDbBlockTableRecord
  2
block 74
340
0
102
{BLKREFS
331
292
102
}
 70
     0
280
     1
281
     0
  0
BLOCK_RECORD
  5
29C
330
1
100
AcDbSymbolTableRecord
100
AcDbBlockTableRecord
  2
block 75
340
0
102
{BLKREFS
331
29D
102
}
 70
     0
280
     1
281
     0
  0
BLOCK_RECORD
  5
2A1
330
1
100
AcDbSymbolTableRecord
100
AcDbBlockTableRecord
  2
block 76
340
0
102
{BLKREFS
331
2A2
102
}
 70
     0
280
     1
281
     0
  0
BLOCK_RECORD
  5
2A9
330
1
100
AcDbSymbolTableRecord
100
AcDbBlockTableRecord
  2
block 77
340
0
102
{BLKREFS
331
2AA
102
}
 70
     0
280
     1
281
     0
  0
BLOCK_RECORD
  5
2B1
330
1
100
AcDbSymbolTableRecord
100
AcDbBlockTableRecord
  2
block 78
340
0
102
{BLKREFS
331
2B2
102
}
 70
     0
280
     1
281
     0
  0
BLOCK_RECORD
  5
2B9
330
1
100
AcDbSymbolTableRecord
100
AcDbBlockTableRecord
  2
block 79
340
0
102
{BLKREFS
331
2BA
102
}
 70
     0
280
     1
281
     0
  0
BLOCK_RECORD
  5
2C4
330
1
100
AcDbSymbolTableRecord
100
AcDbBlockTableRecord
  2
block 80
340
0
102
{BLKREFS
331
2C5
102
}
 70
     0
280
     1
281
     0
  0
BLOCK_RECORD
  5
2CF
330
1
100
AcDbSymbolTableRecord
100
AcDbBlockTableRecord
  2
block 81
340
0
102
{BLKREFS
331
2D0
102
}
 70
     0
280
     1
281
     0
  0
BLOCK_RECORD
  5
2D4
330
1
100
AcDbSymbolTableRecord
100
AcDbBlockTableRecord
  2
block 82
340
0
102
{BLKREFS
331
2D5
102
}
 70
     0
280
     1
281
     0
  0
BLOCK_RECORD
  5
2DC
330
1
100
AcDbSymbolTableRecord
100
AcDbBlockTableRecord
  2
block 83
340
0
102
{BLKREFS
331
2DD
102
}
 70
     0
280
     1
281
     0
  0
BLOCK_RECORD
  5
2E4
330
1
100
AcDbSymbolTableRecord
100
AcDbBlockTableRecord
  2
block 84
340
0
102
{BLKREFS
331
2E5
102
}
 70
     0
280
     1
281
     0
  0
BLOCK_RECORD
  5
2EC
330
1
100
AcDbSymbolTableRecord
100
AcDbBlockTableRecord
  2
block 85
340
0
102
{BLKREFS
331
2ED
102
}
 70
     0
280
     1
281
     0
  0
BLOCK_RECORD
  5
2F4
330
1
100
AcDbSymbolTableRecord
100
AcDbBlockTableRecord
  2
block 86
340
0
102
{BLKREFS
331
2F5
102
}
 70
     0
280
     1
281
     0
  0
BLOCK_RECORD
  5
2FC
330
1
100
AcDbSymbolTableRecord
100
AcDbBlockTableRecord
  2
block 87
340
0
102
{BLKREFS
331
2FD
102
}
 70
     0
280
     1
281
     0
  0
BLOCK_RECORD
  5
307
330
1
100
AcDbSymbolTableRecord
100
AcDbBlockTableRecord
  2
block 88
340
0
102
{BLKREFS
331
308
102
}
 70
     0
280
     1
281
     0
  0
BLOCK_RECORD
  5
312
330
1
100
AcDbSymbolTableRecord
100
AcDbBlockTableRecord
  2
block 89
340
0
102
{BLKREFS
331
313
102
}
 70
     0
280
     1
281
     0
  0
BLOCK_RECORD
  5
317
330
1
100
AcDbSymbolTableRecord
100
AcDbBlockTableRecord
  2
block 90
340
0
102
{BLKREFS
331
318
102
}
 70
     0
280
     1
281
     0
  0
BLOCK_RECORD
  5
31F
330
1
100
AcDbSymbolTableRecord
100
AcDbBlockTableRecord
  2
block 91
340
0
102
{BLKREFS
331
320
102
}
 70
     0
280
     1
281
     0
  0
BLOCK_RECORD
  5
324
330
1
100
AcDbSymbolTableRecord
100
AcDbBlockTableRecord
  2
block 92
340
0
102
{BLKREFS
331
325
102
}
 70
     0
280
     1
281
     0
  0
BLOCK_RECORD
  5
32C
330
1
100
AcDbSymbolTableRecord
100
AcDbBlockTableRecord
  2
block 93
340
0
102
{BLKREFS
331
32D
102
}
 70
     0
280
     1
281
     0
  0
BLOCK_RECORD
  5
337
330
1
100
AcDbSymbolTableRecord
100
AcDbBlockTableRecord
  2
block 94
340
0
102
{BLKREFS
331
338
102
}
 70
     0
280
     1
281
     0
  0
BLOCK_RECORD
  5
33C
330
1
100
AcDbSymbolTableRecord
100
AcDbBlockTableRecord
  2
block 95
340
0
102
{BLKREFS
331
33D
102
}
 70
     0
280
     1
281
     0
  0
BLOCK_RECORD
  5
344
330
1
100
AcDbSymbolTableRecord
100
AcDbBlockTableRecord
  2
block 96
340
0
102
{BLKREFS
331
345
102
}
 70
     0
280
     1
281
     0
  0
BLOCK_RECORD
  5
349
330
1
100
AcDbSymbolTableRecord
100
AcDbBlockTableRecord
  2
block 97
340
0
102
{BLKREFS
331
34A
102
}
 70
     0
280
     1
281
     0
  0
BLOCK_RECORD
  5
351
330
1
100
AcDbSymbolTableRecord
100
AcDbBlockTableRecord
  2
block 98
340
0
102
{BLKREFS
331
352
102
}
 70
     0
280
     1
281
     0
  0
BLOCK_RECORD
  5
35D
330
1
100
AcDbSymbolTableRecord
100
AcDbBlockTableRecord
  2
block 99
340
0
102
{BLKREFS
331
35E
102
}
 70
     0
280
     1
281
     0
  0
BLOCK_RECORD
  5
365
330
1
100
AcDbSymbolTableRecord
100
AcDbBlockTableRecord
  2
block 100
340
0
102
{BLKREFS
331
366
102
}
 70
     0
280
     1
281
     0
  0
BLOCK_RECORD
  5
36D
330
1
100
AcDbSymbolTableRecord
100
AcDbBlockTableRecord
  2
block 101
340
0
102
{BLKREFS
331
36E
102
}
 70
     0
280
     1
281
     0
  0
BLOCK_RECORD
  5
375
330
1
100
AcDbSymbolTableRecord
100
AcDbBlockTableRecord
  2
block 102
340
0
102
{BLKREFS
331
376
102
}
 70
     0
280
     1
281
     0
  0
BLOCK_RECORD
  5
37D
330
1
100
AcDbSymbolTableRecord
100
AcDbBlockTableRecord
  2
block 103
340
0
102
{BLKREFS
331
37E
102
}
 70
     0
280
     1
281
     0
  0
BLOCK_RECORD
  5
385
330
1
100
AcDbSymbolTableRecord
100
AcDbBlockTableRecord
  2
block 104
340
0
102
{BLKREFS
331
386
102
}
 70
     0
280
     1
281
     0
  0
BLOCK_RECORD
  5
38D
330
1
100
AcDbSymbolTableRecord
100
AcDbBlockTableRecord
  2
block 105
340
0
102
{BLKREFS
331
38E
102
}
 70
     0
280
     1
281
     0
  0
BLOCK_RECORD
  5
395
330
1
100
AcDbSymbolTableRecord
100
AcDbBlockTableRecord
  2
block 106
340
0
102
{BLKREFS
331
396
102
}
 70
     0
280
     1
281
     0
  0
BLOCK_RECORD
  5
39D
330
1
100
AcDbSymbolTableRecord
100
AcDbBlockTableRecord
  2
block 107
340
0
102
{BLKREFS
331
39E
102
}
 70
     0
280
     1
281
     0
  0
BLOCK_RECORD
  5
3A5
330
1
100
AcDbSymbolTableRecord
100
AcDbBlockTableRecord
  2
block 108
340
0
102
{BLKREFS
331
3A6
102
}
 70
     0
280
     1
281
     0
  0
BLOCK_RECORD
  5
3AD
330
1
100
AcDbSymbolTableRecord
100
AcDbBlockTableRecord
  2
block 109
340
0
102
{BLKREFS
331
3AE
102
}
 70
     0
280
     1
281
     0
  0
BLOCK_RECORD
  5
3B5
330
1
100
AcDbSymbolTableRecord
100
AcDbBlockTableRecord
  2
block 110
340
0
102
{BLKREFS
331
3B6
102
}
 70
     0
280
     1
281
     0
  0
BLOCK_RECORD
  5
3BD
330
1
100
AcDbSymbolTableRecord
100
AcDbBlockTableRecord
  2
block 111
340
0
102
{BLKREFS
331
3BE
102
}
 70
     0
280
     1
281
     0
  0
BLOCK_RECORD
  5
3C5
330
1
100
AcDbSymbolTableRecord
100
AcDbBlockTableRecord
  2
block 112
340
0
102
{BLKREFS
331
3C6
102
}
 70
     0
280
     1
281
     0
  0
BLOCK_RECORD
  5
3CD
330
1
100
AcDbSymbolTableRecord
100
AcDbBlockTableRecord
  2
block 113
340
0
102
{BLKREFS
331
3CE
102
}
 70
     0
280
     1
281
     0
  0
BLOCK_RECORD
  5
3D5
330
1
100
AcDbSymbolTableRecord
100
AcDbBlockTableRecord
  2
block 114
340
0
102
{BLKREFS
331
3D6
102
}
 70
     0
280
     1
281
     0
  0
BLOCK_RECORD
  5
3DD
330
1
100
AcDbSymbolTableRecord
100
AcDbBlockTableRecord
  2
block 115
340
0
102
{BLKREFS
331
3DE
102
}
 70
     0
280
     1
281
     0
  0
BLOCK_RECORD
  5
3E5
330
1
100
AcDbSymbolTableRecord
100
AcDbBlockTableRecord
  2
block 116
340
0
102
{BLKREFS
331
3E6
102
}
 70
     0
280
     1
281
     0
  0
BLOCK_RECORD
  5
3ED
330
1
100
AcDbSymbolTableRecord
100
AcDbBlockTableRecord
  2
block 117
340
0
102
{BLKREFS
331
3EE
102
}
 70
     0
280
     1
281
     0
  0
BLOCK_RECORD
  5
3F5
330
1
100
AcDbSymbolTableRecord
100
AcDbBlockTableRecord
  2
block 118
340
0
102
{BLKREFS
331
3F6
102
}
 70
     0
280
     1
281
     0
  0
BLOCK_RECORD
  5
3FD
330
1
100
AcDbSymbolTableRecord
100
AcDbBlockTableRecord
  2
block 119
340
0
102
{BLKREFS
331
3FE
102
}
 70
     0
280
     1
281
     0
  0
BLOCK_RECORD
  5
405
330
1
100
AcDbSymbolTableRecord
100
AcDbBlockTableRecord
  2
block 120
340
0
102
{BLKREFS
331
406
102
}
 70
     0
280
     1
281
     0
  0
BLOCK_RECORD
  5
40D
330
1
100
AcDbSymbolTableRecord
100
AcDbBlockTableRecord
  2
block 121
340
0
102
{BLKREFS
331
40E
102
}
 70
     0
280
     1
281
     0
  0
BLOCK_RECORD
  5
415
330
1
100
AcDbSymbolTableRecord
100
AcDbBlockTableRecord
  2
block 122
340
0
102
{BLKREFS
331
416
102
}
 70
     0
280
     1
281
     0
  0
BLOCK_RECORD
  5
41D
330
1
100
AcDbSymbolTableRecord
100
AcDbBlockTableRecord
  2
block 123
340
0
102
{BLKREFS
331
41E
102
}
 70
     0
280
     1
281
     0
  0
ENDTAB
  0
ENDSEC
  0
SECTION
  2
BLOCKS
  0
BLOCK
  5
20
330
1F
100
AcDbEntity
  8
0
100
AcDbBlockBegin
  2
*Model_Space
 70
     0
 10
0.0
 20
0.0
 30
0.0
  3
*Model_Space
  1

  0
ENDBLK
  5
21
330
1F
100
AcDbEntity
  8
0
100
AcDbBlockEnd
  0
BLOCK
  5
1C
330
1B
100
AcDbEntity
 67
     1
  8
0
100
AcDbBlockBegin
  2
*Paper_Space
 70
     0
 10
0.0
 20
0.0
 30
0.0
  3
*Paper_Space
  1

  0
ENDBLK
  5
1D
330
1B
100
AcDbEntity
 67
     1
  8
0
100
AcDbBlockEnd
  0
BLOCK
  5
24
330
23
100
AcDbEntity
  8
0
100
AcDbBlockBegin
  2
*Paper_Space0
 70
     0
 10
0.0
 20
0.0
 30
0.0
  3
*Paper_Space0
  1

  0
ENDBLK
  5
25
330
23
100
AcDbEntity
  8
0
100
AcDbBlockEnd
  0
BLOCK
  5
43
330
41
100
AcDbEntity
  8
0
100
AcDbBlockBegin
  2
block 2
 70
     0
 10
0.0
 20
0.0
 30
0.0
  3
block 2
  1

  0
POLYLINE
  5
45
330
41
100
AcDbEntity
  8
_U+5916_U+6846_U+7EBF1
 62
     3
420
    65280
370
    25
100
AcDb2dPolyline
 66
     1
 10
0.0
 20
0.0
 30
0.0
  0
VERTEX
  5
46
330
45
100
AcDbEntity
  8
_U+5916_U+6846_U+7EBF1
 62
     3
420
    65280
370
    25
100
AcDbVertex
100
AcDb2dVertex
 10
370.7433119181624
 20
8.767645201747655
 30
0.0
  0
VERTEX
  5
47
330
45
100
AcDbEntity
  8
_U+5916_U+6846_U+7EBF1
 62
     3
420
    65280
370
    25
100
AcDbVertex
100
AcDb2dVertex
 10
370.7433119181624
 20
114.5840528090484
 30
0.0
  0
SEQEND
  5
48
330
45
100
AcDbEntity
  8
_U+5916_U+6846_U+7EBF1
 62
     3
420
    65280
370
    25
  0
ENDBLK
  5
44
330
41
100
AcDbEntity
  8
0
100
AcDbBlockEnd
  0
BLOCK
  5
4B
330
49
100
AcDbEntity
  8
0
100
AcDbBlockBegin
  2
block 3
 70
     0
 10
0.0
 20
0.0
 30
0.0
  3
block 3
  1

  0
POLYLINE
  5
4D
330
49
100
AcDbEntity
  8
_U+5916_U+6846_U+7EBF1
 62
     3
420
    65280
370
    25
100
AcDb2dPolyline
 66
     1
 10
0.0
 20
0.0
 30
0.0
  0
VERTEX
  5
4E
330
4D
100
AcDbEntity
  8
_U+5916_U+6846_U+7EBF1
 62
     3
420
    65280
370
    25
100
AcDbVertex
100
AcDb2dVertex
 10
134.9238892504636
 20
2.720993338472908
 30
0.0
  0
VERTEX
  5
4F
330
4D
100
AcDbEntity
  8
_U+5916_U+6846_U+7EBF1
 62
     3
420
    65280
370
    25
100
AcDbVertex
100
AcDb2dVertex
 10
364.6966600548876
 20
2.720993338472908
 30
0.0
  0
SEQEND
  5
50
330
4D
100
AcDbEntity
  8
_U+5916_U+6846_U+7EBF1
 62
     3
420
    65280
370
    25
  0
ENDBLK
  5
4C
330
49
100
AcDbEntity
  8
0
100
AcDbBlockEnd
  0
BLOCK
  5
53
330
51
100
AcDbEntity
  8
0
100
AcDbBlockBegin
  2
block 4
 70
     0
 10
0.0
 20
0.0
 30
0.0
  3
block 4
  1

  0
POLYLINE
  5
55
330
51
100
AcDbEntity
  8
_U+5916_U+6846_U+7EBF1
 62
     3
420
    65280
370
    25
100
AcDb2dPolyline
 66
     1
 10
0.0
 20
0.0
 30
0.0
  0
VERTEX
  5
56
330
55
100
AcDbEntity
  8
_U+5916_U+6846_U+7EBF1
 62
     3
420
    65280
370
    25
100
AcDbVertex
100
AcDb2dVertex
 10
128.8772373871889
 20
114.5840528090484
 30
0.0
  0
VERTEX
  5
57
330
55
100
AcDbEntity
  8
_U+5916_U+6846_U+7EBF1
 62
     3
420
    65280
370
    25
100
AcDbVertex
100
AcDb2dVertex
 10
128.8772373871889
 20
8.767645201747655
 30
0.0
  0
SEQEND
  5
58
330
55
100
AcDbEntity
  8
_U+5916_U+6846_U+7EBF1
 62
     3
420
    65280
370
    25
  0
ENDBLK
  5
54
330
51
100
AcDbEntity
  8
0
100
AcDbBlockEnd
  0
BLOCK
  5
5B
330
59
100
AcDbEntity
  8
0
100
AcDbBlockBegin
  2
block 5
 70
     0
 10
0.0
 20
0.0
 30
0.0
  3
block 5
  1

  0
POLYLINE
  5
5D
330
59
100
AcDbEntity
  8
_U+5916_U+6846_U+7EBF1
 62
     3
420
    65280
370
    25
100
AcDb2dPolyline
 66
     1
 10
0.0
 20
0.0
 30
0.0
  0
VERTEX
  5
5E
330
5D
100
AcDbEntity
  8
_U+5916_U+6846_U+7EBF1
 62
     3
420
    65280
370
    25
100
AcDbVertex
100
AcDb2dVertex
 10
116.7839336606403
 20
114.5840528090484
 30
0.0
  0
VERTEX
  5
5F
330
5D
100
AcDbEntity
  8
_U+5916_U+6846_U+7EBF1
 62
     3
420
    65280
370
    25
100
AcDbVertex
100
AcDb2dVertex
 10
382.83661564471
 20
114.5840528090484
 30
0.0
  0
SEQEND
  5
60
330
5D
100
AcDbEntity
  8
_U+5916_U+6846_U+7EBF1
 62
     3
420
    65280
370
    25
  0
ENDBLK
  5
5C
330
59
100
AcDbEntity
  8
0
100
AcDbBlockEnd
  0
BLOCK
  5
63
330
61
100
AcDbEntity
  8
0
100
AcDbBlockBegin
  2
block 6
 70
     0
 10
0.0
 20
0.0
 30
0.0
  3
block 6
  1

  0
SPLINE
  5
65
330
61
100
AcDbEntity
  8
_U+5916_U+6846_U+7EBF1
 62
     3
420
    65280
370
    25
100
AcDbSpline
210
0.0
220
0.0
230
1.0
 70
    11
 71
     3
 72
    29
 73
    25
 74
     0
 42
0.0000000001
 43
0.0000000001
 12
1.0
 22
0.0
 32
0.0
 13
1.0
 23
0.0
 33
0.0
 40
0.0
 40
0.0
 40
0.0
 40
0.0
 40
1.0
 40
1.0
 40
1.0
 40
2.0
 40
2.0
 40
2.0
 40
3.0
 40
3.0
 40
3.0
 40
4.0
 40
4.0
 40
4.0
 40
5.0
 40
5.0
 40
5.0
 40
6.0
 40
6.0
 40
6.0
 40
7.0
 40
7.0
 40
7.0
 40
8.0
 40
8.0
 40
8.0
 40
8.0
 10
134.9238892504636
 20
202.983700308032
 30
0.0
 10
134.9238892504636
 20
202.983700308032
 30
0.0
 10
364.6966600548876
 20
202.983700308032
 30
0.0
 10
364.6966600548876
 20
202.983700308032
 30
0.0
 10
368.0361336665101
 20
202.983700308032
 30
0.0
 10
370.7433119181624
 20
205.6908785596843
 30
0.0
 10
370.7433119181624
 20
209.0303521713067
 30
0.0
 10
370.7433119181624
 20
209.0303521713067
 30
0.0
 10
370.7433119181624
 20
438.8031229757298
 30
0.0
 10
370.7433119181624
 20
438.8031229757298
 30
0.0
 10
370.7433119181624
 20
442.1425965873523
 30
0.0
 10
368.0361336665101
 20
444.8497748390046
 30
0.0
 10
364.6966600548876
 20
444.8497748390046
 30
0.0
 10
364.6966600548876
 20
444.8497748390046
 30
0.0
 10
134.9238892504636
 20
444.8497748390046
 30
0.0
 10
134.9238892504636
 20
444.8497748390046
 30
0.0
 10
131.5844156388412
 20
444.8497748390046
 30
0.0
 10
128.8772373871889
 20
442.1425965873523
 30
0.0
 10
128.8772373871889
 20
438.8031229757307
 30
0.0
 10
128.8772373871889
 20
438.8031229757307
 30
0.0
 10
128.8772373871889
 20
209.0303521713067
 30
0.0
 10
128.8772373871889
 20
209.0303521713067
 30
0.0
 10
128.8772373871889
 20
205.6908785596843
 30
0.0
 10
131.5844156388412
 20
202.983700308032
 30
0.0
 10
134.9238892504636
 20
202.983700308032
 30
0.0
  0
ENDBLK
  5
64
330
61
100
AcDbEntity
  8
0
100
AcDbBlockEnd
  0
BLOCK
  5
68
330
66
100
AcDbEntity
  8
0
100
AcDbBlockBegin
  2
block 7
 70
     0
 10
0.0
 20
0.0
 30
0.0
  3
block 7
  1

  0
SPLINE
  5
6A
330
66
100
AcDbEntity
  8
_U+5916_U+6846_U+7EBF1
 62
     3
420
    65280
370
    25
100
AcDbSpline
210
0.0
220
0.0
230
1.0
 70
    11
 71
     3
 72
    29
 73
    25
 74
     0
 42
0.0000000001
 43
0.0000000001
 12
1.0
 22
0.0
 32
0.0
 13
1.0
 23
0.0
 33
0.0
 40
0.0
 40
0.0
 40
0.0
 40
0.0
 40
1.0
 40
1.0
 40
1.0
 40
2.0
 40
2.0
 40
2.0
 40
3.0
 40
3.0
 40
3.0
 40
4.0
 40
4.0
 40
4.0
 40
5.0
 40
5.0
 40
5.0
 40
6.0
 40
6.0
 40
6.0
 40
7.0
 40
7.0
 40
7.0
 40
8.0
 40
8.0
 40
8.0
 40
8.0
 10
122.830585523915
 20
190.8903965814825
 30
0.0
 10
122.830585523915
 20
190.8903965814825
 30
0.0
 10
376.7899637814371
 20
190.8903965814825
 30
0.0
 10
376.7899637814371
 20
190.8903965814825
 30
0.0
 10
380.1294373930577
 20
190.8903965814825
 30
0.0
 10
382.83661564471
 20
193.5975748331348
 30
0.0
 10
382.83661564471
 20
196.9370484447572
 30
0.0
 10
382.83661564471
 20
196.9370484447572
 30
0.0
 10
382.83661564471
 20
450.8964267022784
 30
0.0
 10
382.83661564471
 20
450.8964267022784
 30
0.0
 10
382.83661564471
 20
454.2359003139009
 30
0.0
 10
380.1294373930577
 20
456.9430785655532
 30
0.0
 10
376.7899637814371
 20
456.9430785655532
 30
0.0
 10
376.7899637814371
 20
456.9430785655532
 30
0.0
 10
122.830585523915
 20
456.9430785655532
 30
0.0
 10
122.830585523915
 20
456.9430785655532
 30
0.0
 10
119.4911119122926
 20
456.9430785655532
 30
0.0
 10
116.7839336606403
 20
454.2359003139009
 30
0.0
 10
116.7839336606403
 20
450.8964267022784
 30
0.0
 10
116.7839336606403
 20
450.8964267022784
 30
0.0
 10
116.7839336606403
 20
196.9370484447572
 30
0.0
 10
116.7839336606403
 20
196.9370484447572
 30
0.0
 10
116.7839336606403
 20
193.5975748331348
 30
0.0
 10
119.4911119122926
 20
190.8903965814825
 30
0.0
 10
122.830585523915
 20
190.8903965814825
 30
0.0
  0
ENDBLK
  5
69
330
66
100
AcDbEntity
  8
0
100
AcDbBlockEnd
  0
BLOCK
  5
6D
330
6B
100
AcDbEntity
  8
0
100
AcDbBlockBegin
  2
block 8
 70
     0
 10
0.0
 20
0.0
 30
0.0
  3
block 8
  1

  0
SPLINE
  5
6F
330
6B
100
AcDbEntity
  8
_U+5916_U+6846_U+7EBF1
 62
     3
420
    65280
370
    25
100
AcDbSpline
210
0.0
220
0.0
230
1.0
 70
     8
 71
     3
 72
     8
 73
     4
 74
     0
 42
0.0000000001
 43
0.0000000001
 12
1.0
 22
0.0
 32
0.0
 13
1.0
 23
0.0
 33
0.0
 40
0.0
 40
0.0
 40
0.0
 40
0.0
 40
1.0
 40
1.0
 40
1.0
 40
1.0
 10
128.8772373871889
 20
8.767645201747655
 30
0.0
 10
128.8772373871889
 20
5.428171590125203
 30
0.0
 10
131.5844156388412
 20
2.720993338472908
 30
0.0
 10
134.9238892504636
 20
2.720993338472908
 30
0.0
  0
ENDBLK
  5
6E
330
6B
100
AcDbEntity
  8
0
100
AcDbBlockEnd
  0
BLOCK
  5
72
330
70
100
AcDbEntity
  8
0
100
AcDbBlockBegin
  2
block 9
 70
     0
 10
0.0
 20
0.0
 30
0.0
  3
block 9
  1

  0
SPLINE
  5
74
330
70
100
AcDbEntity
  8
_U+5916_U+6846_U+7EBF1
 62
     3
420
    65280
370
    25
100
AcDbSpline
210
0.0
220
0.0
230
1.0
 70
     8
 71
     3
 72
     8
 73
     4
 74
     0
 42
0.0000000001
 43
0.0000000001
 12
1.0
 22
0.0
 32
0.0
 13
1.0
 23
0.0
 33
0.0
 40
0.0
 40
0.0
 40
0.0
 40
0.0
 40
1.0
 40
1.0
 40
1.0
 40
1.0
 10
364.6966600548876
 20
2.720993338472908
 30
0.0
 10
368.0361336665101
 20
2.720993338472908
 30
0.0
 10
370.7433119181624
 20
5.428171590125203
 30
0.0
 10
370.7433119181624
 20
8.767645201747655
 30
0.0
  0
ENDBLK
  5
73
330
70
100
AcDbEntity
  8
0
100
AcDbBlockEnd
  0
BLOCK
  5
77
330
75
100
AcDbEntity
  8
0
100
AcDbBlockBegin
  2
block 10
 70
     0
 10
0.0
 20
0.0
 30
0.0
  3
block 10
  1

  0
POLYLINE
  5
79
330
75
100
AcDbEntity
  8
_U+5916_U+6846_U+7EBF1
 62
     3
420
    65280
370
    25
100
AcDb2dPolyline
 66
     1
 10
0.0
 20
0.0
 30
0.0
  0
VERTEX
  5
7A
330
79
100
AcDbEntity
  8
_U+5916_U+6846_U+7EBF1
 62
     3
420
    65280
370
    25
100
AcDbVertex
100
AcDb2dVertex
 10
235.7518090705626
 20
82.98845804432676
 30
0.0
  0
VERTEX
  5
7B
330
79
100
AcDbEntity
  8
_U+5916_U+6846_U+7EBF1
 62
     3
420
    65280
370
    25
100
AcDbVertex
100
AcDb2dVertex
 10
263.8687402347878
 20
82.98845804432676
 30
0.0
  0
SEQEND
  5
7C
330
79
100
AcDbEntity
  8
_U+5916_U+6846_U+7EBF1
 62
     3
420
    65280
370
    25
  0
ENDBLK
  5
78
330
75
100
AcDbEntity
  8
0
100
AcDbBlockEnd
  0
BLOCK
  5
7F
330
7D
100
AcDbEntity
  8
0
100
AcDbBlockBegin
  2
block 11
 70
     0
 10
0.0
 20
0.0
 30
0.0
  3
block 11
  1

  0
SPLINE
  5
81
330
7D
100
AcDbEntity
  8
_U+5916_U+6846_U+7EBF1
 62
     3
420
    65280
370
    25
100
AcDbSpline
210
0.0
220
0.0
230
1.0
 70
     8
 71
     3
 72
     8
 73
     4
 74
     0
 42
0.0000000001
 43
0.0000000001
 12
1.0
 22
0.0
 32
0.0
 13
1.0
 23
0.0
 33
0.0
 40
0.0
 40
0.0
 40
0.0
 40
0.0
 40
1.0
 40
1.0
 40
1.0
 40
1.0
 10
231.519152766271
 20
87.22111434861836
 30
0.0
 10
231.519152766271
 20
84.88348282048355
 30
0.0
 10
233.4141775424268
 20
82.98845804432676
 30
0.0
 10
235.7518090705626
 20
82.98845804432676
 30
0.0
  0
ENDBLK
  5
80
330
7D
100
AcDbEntity
  8
0
100
AcDbBlockEnd
  0
BLOCK
  5
84
330
82
100
AcDbEntity
  8
0
100
AcDbBlockBegin
  2
block 12
 70
     0
 10
0.0
 20
0.0
 30
0.0
  3
block 12
  1

  0
POLYLINE
  5
86
330
82
100
AcDbEntity
  8
_U+5916_U+6846_U+7EBF1
 62
     3
420
    65280
370
    25
100
AcDb2dPolyline
 66
     1
 10
0.0
 20
0.0
 30
0.0
  0
VERTEX
  5
87
330
86
100
AcDbEntity
  8
_U+5916_U+6846_U+7EBF1
 62
     3
420
    65280
370
    25
100
AcDbVertex
100
AcDb2dVertex
 10
268.1013965390812
 20
87.22111434861836
 30
0.0
  0
VERTEX
  5
88
330
86
100
AcDbEntity
  8
_U+5916_U+6846_U+7EBF1
 62
     3
420
    65280
370
    25
100
AcDbVertex
100
AcDb2dVertex
 10
268.1013965390812
 20
93.57009880505575
 30
0.0
  0
SEQEND
  5
89
330
86
100
AcDbEntity
  8
_U+5916_U+6846_U+7EBF1
 62
     3
420
    65280
370
    25
  0
ENDBLK
  5
85
330
82
100
AcDbEntity
  8
0
100
AcDbBlockEnd
  0
BLOCK
  5
8C
330
8A
100
AcDbEntity
  8
0
100
AcDbBlockBegin
  2
block 13
 70
     0
 10
0.0
 20
0.0
 30
0.0
  3
block 13
  1

  0
SPLINE
  5
8E
330
8A
100
AcDbEntity
  8
_U+5916_U+6846_U+7EBF1
 62
     3
420
    65280
370
    25
100
AcDbSpline
210
0.0
220
0.0
230
1.0
 70
     8
 71
     3
 72
     8
 73
     4
 74
     0
 42
0.0000000001
 43
0.0000000001
 12
1.0
 22
0.0
 32
0.0
 13
1.0
 23
0.0
 33
0.0
 40
0.0
 40
0.0
 40
0.0
 40
0.0
 40
1.0
 40
1.0
 40
1.0
 40
1.0
 10
263.8687402347878
 20
82.98845804432676
 30
0.0
 10
266.2063717629244
 20
82.98845804432676
 30
0.0
 10
268.1013965390812
 20
84.88348282048355
 30
0.0
 10
268.1013965390812
 20
87.22111434861836
 30
0.0
  0
ENDBLK
  5
8D
330
8A
100
AcDbEntity
  8
0
100
AcDbBlockEnd
  0
BLOCK
  5
91
330
8F
100
AcDbEntity
  8
0
100
AcDbBlockBegin
  2
block 14
 70
     0
 10
0.0
 20
0.0
 30
0.0
  3
block 14
  1

  0
POLYLINE
  5
93
330
8F
100
AcDbEntity
  8
_U+5916_U+6846_U+7EBF1
 62
     3
420
    65280
370
    25
100
AcDb2dPolyline
 66
     1
 10
0.0
 20
0.0
 30
0.0
  0
VERTEX
  5
94
330
93
100
AcDbEntity
  8
_U+5916_U+6846_U+7EBF1
 62
     3
420
    65280
370
    25
100
AcDbVertex
100
AcDb2dVertex
 10
263.8687402347878
 20
97.80275510934916
 30
0.0
  0
VERTEX
  5
95
330
93
100
AcDbEntity
  8
_U+5916_U+6846_U+7EBF1
 62
     3
420
    65280
370
    25
100
AcDbVertex
100
AcDb2dVertex
 10
235.7518090705626
 20
97.80275510934916
 30
0.0
  0
SEQEND
  5
96
330
93
100
AcDbEntity
  8
_U+5916_U+6846_U+7EBF1
 62
     3
420
    65280
370
    25
  0
ENDBLK
  5
92
330
8F
100
AcDbEntity
  8
0
100
AcDbBlockEnd
  0
BLOCK
  5
99
330
97
100
AcDbEntity
  8
0
100
AcDbBlockBegin
  2
block 15
 70
     0
 10
0.0
 20
0.0
 30
0.0
  3
block 15
  1

  0
SPLINE
  5
9B
330
97
100
AcDbEntity
  8
_U+5916_U+6846_U+7EBF1
 62
     3
420
    65280
370
    25
100
AcDbSpline
210
0.0
220
0.0
230
1.0
 70
     8
 71
     3
 72
     8
 73
     4
 74
     0
 42
0.0000000001
 43
0.0000000001
 12
1.0
 22
0.0
 32
0.0
 13
1.0
 23
0.0
 33
0.0
 40
0.0
 40
0.0
 40
0.0
 40
0.0
 40
1.0
 40
1.0
 40
1.0
 40
1.0
 10
268.1013965390812
 20
93.57009880505575
 30
0.0
 10
268.1013965390812
 20
95.90773033319238
 30
0.0
 10
266.2063717629244
 20
97.80275510934916
 30
0.0
 10
263.8687402347878
 20
97.80275510934916
 30
0.0
  0
ENDBLK
  5
9A
330
97
100
AcDbEntity
  8
0
100
AcDbBlockEnd
  0
BLOCK
  5
9E
330
9C
100
AcDbEntity
  8
0
100
AcDbBlockBegin
  2
block 16
 70
     0
 10
0.0
 20
0.0
 30
0.0
  3
block 16
  1

  0
POLYLINE
  5
A0
330
9C
100
AcDbEntity
  8
_U+5916_U+6846_U+7EBF1
 62
     3
420
    65280
370
    25
100
AcDb2dPolyline
 66
     1
 10
0.0
 20
0.0
 30
0.0
  0
VERTEX
  5
A1
330
A0
100
AcDbEntity
  8
_U+5916_U+6846_U+7EBF1
 62
     3
420
    65280
370
    25
100
AcDbVertex
100
AcDb2dVertex
 10
231.5191527662701
 20
93.57009880505575
 30
0.0
  0
VERTEX
  5
A2
330
A0
100
AcDbEntity
  8
_U+5916_U+6846_U+7EBF1
 62
     3
420
    65280
370
    25
100
AcDbVertex
100
AcDb2dVertex
 10
231.5191527662701
 20
87.22111434861836
 30
0.0
  0
SEQEND
  5
A3
330
A0
100
AcDbEntity
  8
_U+5916_U+6846_U+7EBF1
 62
     3
420
    65280
370
    25
  0
ENDBLK
  5
9F
330
9C
100
AcDbEntity
  8
0
100
AcDbBlockEnd
  0
BLOCK
  5
A6
330
A4
100
AcDbEntity
  8
0
100
AcDbBlockBegin
  2
block 17
 70
     0
 10
0.0
 20
0.0
 30
0.0
  3
block 17
  1

  0
SPLINE
  5
A8
330
A4
100
AcDbEntity
  8
_U+5916_U+6846_U+7EBF1
 62
     3
420
    65280
370
    25
100
AcDbSpline
210
0.0
220
0.0
230
1.0
 70
     8
 71
     3
 72
     8
 73
     4
 74
     0
 42
0.0000000001
 43
0.0000000001
 12
1.0
 22
0.0
 32
0.0
 13
1.0
 23
0.0
 33
0.0
 40
0.0
 40
0.0
 40
0.0
 40
0.0
 40
1.0
 40
1.0
 40
1.0
 40
1.0
 10
235.7518090705626
 20
97.80275510934916
 30
0.0
 10
233.4141775424268
 20
97.80275510934916
 30
0.0
 10
231.519152766271
 20
95.90773033319238
 30
0.0
 10
231.519152766271
 20
93.57009880505575
 30
0.0
  0
ENDBLK
  5
A7
330
A4
100
AcDbEntity
  8
0
100
AcDbBlockEnd
  0
BLOCK
  5
AB
330
A9
100
AcDbEntity
  8
0
100
AcDbBlockBegin
  2
block 18
 70
     0
 10
0.0
 20
0.0
 30
0.0
  3
block 18
  1

  0
POLYLINE
  5
AD
330
A9
100
AcDbEntity
  8
_U+5916_U+6846_U+7EBF1
 62
     3
420
    65280
370
    25
100
AcDb2dPolyline
 66
     1
 10
0.0
 20
0.0
 30
0.0
  0
VERTEX
  5
AE
330
AD
100
AcDbEntity
  8
_U+5916_U+6846_U+7EBF1
 62
     3
420
    65280
370
    25
100
AcDbVertex
100
AcDb2dVertex
 10
235.7518090705626
 20
82.98845804432676
 30
0.0
  0
VERTEX
  5
AF
330
AD
100
AcDbEntity
  8
_U+5916_U+6846_U+7EBF1
 62
     3
420
    65280
370
    25
100
AcDbVertex
100
AcDb2dVertex
 10
263.8687402347878
 20
82.98845804432676
 30
0.0
  0
SEQEND
  5
B0
330
AD
100
AcDbEntity
  8
_U+5916_U+6846_U+7EBF1
 62
     3
420
    65280
370
    25
  0
ENDBLK
  5
AC
330
A9
100
AcDbEntity
  8
0
100
AcDbBlockEnd
  0
BLOCK
  5
B3
330
B1
100
AcDbEntity
  8
0
100
AcDbBlockBegin
  2
block 19
 70
     0
 10
0.0
 20
0.0
 30
0.0
  3
block 19
  1

  0
SPLINE
  5
B5
330
B1
100
AcDbEntity
  8
_U+5916_U+6846_U+7EBF1
 62
     3
420
    65280
370
    25
100
AcDbSpline
210
0.0
220
0.0
230
1.0
 70
     8
 71
     3
 72
     8
 73
     4
 74
     0
 42
0.0000000001
 43
0.0000000001
 12
1.0
 22
0.0
 32
0.0
 13
1.0
 23
0.0
 33
0.0
 40
0.0
 40
0.0
 40
0.0
 40
0.0
 40
1.0
 40
1.0
 40
1.0
 40
1.0
 10
231.519152766271
 20
87.22111434861836
 30
0.0
 10
231.519152766271
 20
84.88348282048355
 30
0.0
 10
233.4141775424268
 20
82.98845804432676
 30
0.0
 10
235.7518090705626
 20
82.98845804432676
 30
0.0
  0
ENDBLK
  5
B4
330
B1
100
AcDbEntity
  8
0
100
AcDbBlockEnd
  0
BLOCK
  5
B8
330
B6
100
AcDbEntity
  8
0
100
AcDbBlockBegin
  2
block 20
 70
     0
 10
0.0
 20
0.0
 30
0.0
  3
block 20
  1

  0
POLYLINE
  5
BA
330
B6
100
AcDbEntity
  8
_U+5916_U+6846_U+7EBF1
 62
     3
420
    65280
370
    25
100
AcDb2dPolyline
 66
     1
 10
0.0
 20
0.0
 30
0.0
  0
VERTEX
  5
BB
330
BA
100
AcDbEntity
  8
_U+5916_U+6846_U+7EBF1
 62
     3
420
    65280
370
    25
100
AcDbVertex
100
AcDb2dVertex
 10
268.1013965390812
 20
87.22111434861836
 30
0.0
  0
VERTEX
  5
BC
330
BA
100
AcDbEntity
  8
_U+5916_U+6846_U+7EBF1
 62
     3
420
    65280
370
    25
100
AcDbVertex
100
AcDb2dVertex
 10
268.1013965390812
 20
93.57009880505575
 30
0.0
  0
SEQEND
  5
BD
330
BA
100
AcDbEntity
  8
_U+5916_U+6846_U+7EBF1
 62
     3
420
    65280
370
    25
  0
ENDBLK
  5
B9
330
B6
100
AcDbEntity
  8
0
100
AcDbBlockEnd
  0
BLOCK
  5
C0
330
BE
100
AcDbEntity
  8
0
100
AcDbBlockBegin
  2
block 21
 70
     0
 10
0.0
 20
0.0
 30
0.0
  3
block 21
  1

  0
SPLINE
  5
C2
330
BE
100
AcDbEntity
  8
_U+5916_U+6846_U+7EBF1
 62
     3
420
    65280
370
    25
100
AcDbSpline
210
0.0
220
0.0
230
1.0
 70
     8
 71
     3
 72
     8
 73
     4
 74
     0
 42
0.0000000001
 43
0.0000000001
 12
1.0
 22
0.0
 32
0.0
 13
1.0
 23
0.0
 33
0.0
 40
0.0
 40
0.0
 40
0.0
 40
0.0
 40
1.0
 40
1.0
 40
1.0
 40
1.0
 10
263.8687402347878
 20
82.98845804432676
 30
0.0
 10
266.2063717629244
 20
82.98845804432676
 30
0.0
 10
268.1013965390812
 20
84.88348282048355
 30
0.0
 10
268.1013965390812
 20
87.22111434861836
 30
0.0
  0
ENDBLK
  5
C1
330
BE
100
AcDbEntity
  8
0
100
AcDbBlockEnd
  0
BLOCK
  5
C5
330
C3
100
AcDbEntity
  8
0
100
AcDbBlockBegin
  2
block 22
 70
     0
 10
0.0
 20
0.0
 30
0.0
  3
block 22
  1

  0
POLYLINE
  5
C7
330
C3
100
AcDbEntity
  8
_U+5916_U+6846_U+7EBF1
 62
     3
420
    65280
370
    25
100
AcDb2dPolyline
 66
     1
 10
0.0
 20
0.0
 30
0.0
  0
VERTEX
  5
C8
330
C7
100
AcDbEntity
  8
_U+5916_U+6846_U+7EBF1
 62
     3
420
    65280
370
    25
100
AcDbVertex
100
AcDb2dVertex
 10
263.8687402347878
 20
97.80275510934916
 30
0.0
  0
VERTEX
  5
C9
330
C7
100
AcDbEntity
  8
_U+5916_U+6846_U+7EBF1
 62
     3
420
    65280
370
    25
100
AcDbVertex
100
AcDb2dVertex
 10
235.7518090705626
 20
97.80275510934916
 30
0.0
  0
SEQEND
  5
CA
330
C7
100
AcDbEntity
  8
_U+5916_U+6846_U+7EBF1
 62
     3
420
    65280
370
    25
  0
ENDBLK
  5
C6
330
C3
100
AcDbEntity
  8
0
100
AcDbBlockEnd
  0
BLOCK
  5
CD
330
CB
100
AcDbEntity
  8
0
100
AcDbBlockBegin
  2
block 23
 70
     0
 10
0.0
 20
0.0
 30
0.0
  3
block 23
  1

  0
SPLINE
  5
CF
330
CB
100
AcDbEntity
  8
_U+5916_U+6846_U+7EBF1
 62
     3
420
    65280
370
    25
100
AcDbSpline
210
0.0
220
0.0
230
1.0
 70
     8
 71
     3
 72
     8
 73
     4
 74
     0
 42
0.0000000001
 43
0.0000000001
 12
1.0
 22
0.0
 32
0.0
 13
1.0
 23
0.0
 33
0.0
 40
0.0
 40
0.0
 40
0.0
 40
0.0
 40
1.0
 40
1.0
 40
1.0
 40
1.0
 10
268.1013965390812
 20
93.57009880505575
 30
0.0
 10
268.1013965390812
 20
95.90773033319238
 30
0.0
 10
266.2063717629244
 20
97.80275510934916
 30
0.0
 10
263.8687402347878
 20
97.80275510934916
 30
0.0
  0
ENDBLK
  5
CE
330
CB
100
AcDbEntity
  8
0
100
AcDbBlockEnd
  0
BLOCK
  5
D2
330
D0
100
AcDbEntity
  8
0
100
AcDbBlockBegin
  2
block 24
 70
     0
 10
0.0
 20
0.0
 30
0.0
  3
block 24
  1

  0
POLYLINE
  5
D4
330
D0
100
AcDbEntity
  8
_U+5916_U+6846_U+7EBF1
 62
     3
420
    65280
370
    25
100
AcDb2dPolyline
 66
     1
 10
0.0
 20
0.0
 30
0.0
  0
VERTEX
  5
D5
330
D4
100
AcDbEntity
  8
_U+5916_U+6846_U+7EBF1
 62
     3
420
    65280
370
    25
100
AcDbVertex
100
AcDb2dVertex
 10
231.5191527662701
 20
93.57009880505575
 30
0.0
  0
VERTEX
  5
D6
330
D4
100
AcDbEntity
  8
_U+5916_U+6846_U+7EBF1
 62
     3
420
    65280
370
    25
100
AcDbVertex
100
AcDb2dVertex
 10
231.5191527662701
 20
87.22111434861836
 30
0.0
  0
SEQEND
  5
D7
330
D4
100
AcDbEntity
  8
_U+5916_U+6846_U+7EBF1
 62
     3
420
    65280
370
    25
  0
ENDBLK
  5
D3
330
D0
100
AcDbEntity
  8
0
100
AcDbBlockEnd
  0
BLOCK
  5
DA
330
D8
100
AcDbEntity
  8
0
100
AcDbBlockBegin
  2
block 25
 70
     0
 10
0.0
 20
0.0
 30
0.0
  3
block 25
  1

  0
SPLINE
  5
DC
330
D8
100
AcDbEntity
  8
_U+5916_U+6846_U+7EBF1
 62
     3
420
    65280
370
    25
100
AcDbSpline
210
0.0
220
0.0
230
1.0
 70
     8
 71
     3
 72
     8
 73
     4
 74
     0
 42
0.0000000001
 43
0.0000000001
 12
1.0
 22
0.0
 32
0.0
 13
1.0
 23
0.0
 33
0.0
 40
0.0
 40
0.0
 40
0.0
 40
0.0
 40
1.0
 40
1.0
 40
1.0
 40
1.0
 10
235.7518090705626
 20
97.80275510934916
 30
0.0
 10
233.4141775424268
 20
97.80275510934916
 30
0.0
 10
231.519152766271
 20
95.90773033319238
 30
0.0
 10
231.519152766271
 20
93.57009880505575
 30
0.0
  0
ENDBLK
  5
DB
330
D8
100
AcDbEntity
  8
0
100
AcDbBlockEnd
  0
BLOCK
  5
DF
330
DD
100
AcDbEntity
  8
0
100
AcDbBlockBegin
  2
block 26
 70
     0
 10
0.0
 20
0.0
 30
0.0
  3
block 26
  1

  0
POLYLINE
  5
E1
330
DD
100
AcDbEntity
  8
_U+5916_U+6846_U+7EBF1
  6
AI-Linetype-1
 62
     3
420
    65280
370
    25
100
AcDb2dPolyline
 66
     1
 10
0.0
 20
0.0
 30
0.0
  0
VERTEX
  5
E2
330
E1
100
AcDbEntity
  8
_U+5916_U+6846_U+7EBF1
  6
AI-Linetype-1
 62
     3
420
    65280
370
    25
100
AcDbVertex
100
AcDb2dVertex
 10
218.9723501499766
 20
2.720993338472908
 30
0.0
  0
VERTEX
  5
E3
330
E1
100
AcDbEntity
  8
_U+5916_U+6846_U+7EBF1
  6
AI-Linetype-1
 62
     3
420
    65280
370
    25
100
AcDbVertex
100
AcDb2dVertex
 10
221.0886783021224
 20
0.6046651863271109
 30
0.0
  0
SEQEND
  5
E5
330
E1
100
AcDbEntity
  8
_U+5916_U+6846_U+7EBF1
  6
AI-Linetype-1
 62
     3
420
    65280
370
    25
  0
ENDBLK
  5
E0
330
DD
100
AcDbEntity
  8
0
100
AcDbBlockEnd
  0
BLOCK
  5
E8
330
E6
100
AcDbEntity
  8
0
100
AcDbBlockBegin
  2
block 27
 70
     0
 10
0.0
 20
0.0
 30
0.0
  3
block 27
  1

  0
POLYLINE
  5
EA
330
E6
100
AcDbEntity
  8
_U+5916_U+6846_U+7EBF1
  6
AI-Linetype-2
 62
     3
420
    65280
370
    25
100
AcDb2dPolyline
 66
     1
 10
0.0
 20
0.0
 30
0.0
  0
VERTEX
  5
EB
330
EA
100
AcDbEntity
  8
_U+5916_U+6846_U+7EBF1
  6
AI-Linetype-2
 62
     3
420
    65280
370
    25
100
AcDbVertex
100
AcDb2dVertex
 10
221.0886783021224
 20
0.6046651863271109
 30
0.0
  0
VERTEX
  5
EC
330
EA
100
AcDbEntity
  8
_U+5916_U+6846_U+7EBF1
  6
AI-Linetype-2
 62
     3
420
    65280
370
    25
100
AcDbVertex
100
AcDb2dVertex
 10
225.6236671995784
 20
0.0
 30
0.0
  0
SEQEND
  5
EE
330
EA
100
AcDbEntity
  8
_U+5916_U+6846_U+7EBF1
  6
AI-Linetype-2
 62
     3
420
    65280
370
    25
  0
ENDBLK
  5
E9
330
E6
100
AcDbEntity
  8
0
100
AcDbBlockEnd
  0
BLOCK
  5
F1
330
EF
100
AcDbEntity
  8
0
100
AcDbBlockBegin
  2
block 28
 70
     0
 10
0.0
 20
0.0
 30
0.0
  3
block 28
  1

  0
POLYLINE
  5
F3
330
EF
100
AcDbEntity
  8
_U+5916_U+6846_U+7EBF1
  6
AI-Linetype-3
 62
     3
420
    65280
370
    25
100
AcDb2dPolyline
 66
     1
 10
0.0
 20
0.0
 30
0.0
  0
VERTEX
  5
F4
330
F3
100
AcDbEntity
  8
_U+5916_U+6846_U+7EBF1
  6
AI-Linetype-3
 62
     3
420
    65280
370
    25
100
AcDbVertex
100
AcDb2dVertex
 10
225.6236671995784
 20
0.0
 30
0.0
  0
VERTEX
  5
F5
330
F3
100
AcDbEntity
  8
_U+5916_U+6846_U+7EBF1
  6
AI-Linetype-3
 62
     3
420
    65280
370
    25
100
AcDbVertex
100
AcDb2dVertex
 10
249.8102746527193
 20
0.0000000000090949
 30
0.0
  0
SEQEND
  5
F7
330
F3
100
AcDbEntity
  8
_U+5916_U+6846_U+7EBF1
  6
AI-Linetype-3
 62
     3
420
    65280
370
    25
  0
ENDBLK
  5
F2
330
EF
100
AcDbEntity
  8
0
100
AcDbBlockEnd
  0
BLOCK
  5
FA
330
F8
100
AcDbEntity
  8
0
100
AcDbBlockBegin
  2
block 29
 70
     0
 10
0.0
 20
0.0
 30
0.0
  3
block 29
  1

  0
POLYLINE
  5
FC
330
F8
100
AcDbEntity
  8
_U+5916_U+6846_U+7EBF1
  6
AI-Linetype-4
 62
     3
420
    65280
370
    25
100
AcDb2dPolyline
 66
     1
 10
0.0
 20
0.0
 30
0.0
  0
VERTEX
  5
FD
330
FC
100
AcDbEntity
  8
_U+5916_U+6846_U+7EBF1
  6
AI-Linetype-4
 62
     3
420
    65280
370
    25
100
AcDbVertex
100
AcDb2dVertex
 10
280.6481991553737
 20
2.720993338472908
 30
0.0
  0
VERTEX
  5
FE
330
FC
100
AcDbEntity
  8
_U+5916_U+6846_U+7EBF1
  6
AI-Linetype-4
 62
     3
420
    65280
370
    25
100
AcDbVertex
100
AcDb2dVertex
 10
278.5318710032279
 20
0.6046651863271109
 30
0.0
  0
SEQEND
  5
100
330
FC
100
AcDbEntity
  8
_U+5916_U+6846_U+7EBF1
  6
AI-Linetype-4
 62
     3
420
    65280
370
    25
  0
ENDBLK
  5
FB
330
F8
100
AcDbEntity
  8
0
100
AcDbBlockEnd
  0
BLOCK
  5
103
330
101
100
AcDbEntity
  8
0
100
AcDbBlockBegin
  2
block 30
 70
     0
 10
0.0
 20
0.0
 30
0.0
  3
block 30
  1

  0
POLYLINE
  5
105
330
101
100
AcDbEntity
  8
_U+5916_U+6846_U+7EBF1
  6
AI-Linetype-5
 62
     3
420
    65280
370
    25
100
AcDb2dPolyline
 66
     1
 10
0.0
 20
0.0
 30
0.0
  0
VERTEX
  5
106
330
105
100
AcDbEntity
  8
_U+5916_U+6846_U+7EBF1
  6
AI-Linetype-5
 62
     3
420
    65280
370
    25
100
AcDbVertex
100
AcDb2dVertex
 10
278.5318710032279
 20
0.6046651863271109
 30
0.0
  0
VERTEX
  5
107
330
105
100
AcDbEntity
  8
_U+5916_U+6846_U+7EBF1
  6
AI-Linetype-5
 62
     3
420
    65280
370
    25
100
AcDbVertex
100
AcDb2dVertex
 10
273.9968821057737
 20
0.0
 30
0.0
  0
SEQEND
  5
109
330
105
100
AcDbEntity
  8
_U+5916_U+6846_U+7EBF1
  6
AI-Linetype-5
 62
     3
420
    65280
370
    25
  0
ENDBLK
  5
104
330
101
100
AcDbEntity
  8
0
100
AcDbBlockEnd
  0
BLOCK
  5
10C
330
10A
100
AcDbEntity
  8
0
100
AcDbBlockBegin
  2
block 31
 70
     0
 10
0.0
 20
0.0
 30
0.0
  3
block 31
  1

  0
POLYLINE
  5
10E
330
10A
100
AcDbEntity
  8
_U+5916_U+6846_U+7EBF1
  6
AI-Linetype-6
 62
     3
420
    65280
370
    25
100
AcDb2dPolyline
 66
     1
 10
0.0
 20
0.0
 30
0.0
  0
VERTEX
  5
10F
330
10E
100
AcDbEntity
  8
_U+5916_U+6846_U+7EBF1
  6
AI-Linetype-6
 62
     3
420
    65280
370
    25
100
AcDbVertex
100
AcDb2dVertex
 10
273.9968821057737
 20
0.0
 30
0.0
  0
VERTEX
  5
110
330
10E
100
AcDbEntity
  8
_U+5916_U+6846_U+7EBF1
  6
AI-Linetype-6
 62
     3
420
    65280
370
    25
100
AcDbVertex
100
AcDb2dVertex
 10
249.8102746526847
 20
0.0000000000090949
 30
0.0
  0
SEQEND
  5
112
330
10E
100
AcDbEntity
  8
_U+5916_U+6846_U+7EBF1
  6
AI-Linetype-6
 62
     3
420
    65280
370
    25
  0
ENDBLK
  5
10D
330
10A
100
AcDbEntity
  8
0
100
AcDbBlockEnd
  0
BLOCK
  5
115
330
113
100
AcDbEntity
  8
0
100
AcDbBlockBegin
  2
block 32
 70
     0
 10
0.0
 20
0.0
 30
0.0
  3
block 32
  1

  0
POLYLINE
  5
117
330
113
100
AcDbEntity
  8
_U+5916_U+6846_U+7EBF1
  6
AI-Linetype-7
 62
     3
420
    65280
370
    25
100
AcDb2dPolyline
 66
     1
 10
0.0
 20
0.0
 30
0.0
  0
VERTEX
  5
118
330
117
100
AcDbEntity
  8
_U+5916_U+6846_U+7EBF1
  6
AI-Linetype-7
 62
     3
420
    65280
370
    25
100
AcDbVertex
100
AcDb2dVertex
 10
221.0886783021224
 20
0.6046651863271109
 30
0.0
  0
VERTEX
  5
119
330
117
100
AcDbEntity
  8
_U+5916_U+6846_U+7EBF1
  6
AI-Linetype-7
 62
     3
420
    65280
370
    25
100
AcDbVertex
100
AcDb2dVertex
 10
278.5318710032279
 20
0.6046651863271109
 30
0.0
  0
SEQEND
  5
11B
330
117
100
AcDbEntity
  8
_U+5916_U+6846_U+7EBF1
  6
AI-Linetype-7
 62
     3
420
    65280
370
    25
  0
ENDBLK
  5
116
330
113
100
AcDbEntity
  8
0
100
AcDbBlockEnd
  0
BLOCK
  5
11E
330
11C
100
AcDbEntity
  8
0
100
AcDbBlockBegin
  2
block 33
 70
     0
 10
0.0
 20
0.0
 30
0.0
  3
block 33
  1

  0
POLYLINE
  5
120
330
11C
100
AcDbEntity
  8
_U+5916_U+6846_U+7EBF1
 62
     3
420
    65280
370
    25
100
AcDb2dPolyline
 66
     1
 10
0.0
 20
0.0
 30
0.0
  0
VERTEX
  5
121
330
120
100
AcDbEntity
  8
_U+5916_U+6846_U+7EBF1
 62
     3
420
    65280
370
    25
100
AcDbVertex
100
AcDb2dVertex
 10
280.6481991553737
 20
2.720993338472908
 30
0.0
  0
VERTEX
  5
122
330
120
100
AcDbEntity
  8
_U+5916_U+6846_U+7EBF1
 62
     3
420
    65280
370
    25
100
AcDbVertex
100
AcDb2dVertex
 10
218.9723501499766
 20
2.720993338472908
 30
0.0
  0
SEQEND
  5
123
330
120
100
AcDbEntity
  8
_U+5916_U+6846_U+7EBF1
 62
     3
420
    65280
370
    25
  0
ENDBLK
  5
11F
330
11C
100
AcDbEntity
  8
0
100
AcDbBlockEnd
  0
BLOCK
  5
126
330
124
100
AcDbEntity
  8
0
100
AcDbBlockBegin
  2
block 34
 70
     0
 10
0.0
 20
0.0
 30
0.0
  3
block 34
  1

  0
SPLINE
  5
128
330
124
100
AcDbEntity
  8
_U+5916_U+6846_U+7EBF1
 62
     3
420
    65280
370
    25
100
AcDbSpline
210
0.0
220
0.0
230
1.0
 70
    11
 71
     3
 72
    20
 73
    16
 74
     0
 42
0.0000000001
 43
0.0000000001
 12
1.0
 22
0.0
 32
0.0
 13
1.0
 23
0.0
 33
0.0
 40
0.0
 40
0.0
 40
0.0
 40
0.0
 40
1.0
 40
1.0
 40
1.0
 40
2.0
 40
2.0
 40
2.0
 40
3.0
 40
3.0
 40
3.0
 40
4.0
 40
4.0
 40
4.0
 40
5.0
 40
5.0
 40
5.0
 40
5.0
 10
214.4373612525205
 20
372.2899524797122
 30
0.0
 10
214.4373612525205
 20
391.825873107703
 30
0.0
 10
230.2743540246847
 20
407.6628658798672
 30
0.0
 10
249.8102746526756
 20
407.6628658798672
 30
0.0
 10
269.3461952806665
 20
407.6628658798672
 30
0.0
 10
285.1831880528298
 20
391.825873107703
 30
0.0
 10
285.1831880528298
 20
372.2899524797122
 30
0.0
 10
285.1831880528298
 20
352.7540318517222
 30
0.0
 10
269.3461952806665
 20
336.917039079558
 30
0.0
 10
249.8102746526756
 20
336.917039079558
 30
0.0
 10
230.2743540246847
 20
336.917039079558
 30
0.0
 10
214.4373612525205
 20
352.7540318517222
 30
0.0
 10
214.4373612525205
 20
372.2899524797122
 30
0.0
 10
214.4373612525205
 20
372.2899524797122
 30
0.0
 10
214.4373612525205
 20
372.2899524797122
 30
0.0
 10
214.4373612525205
 20
372.2899524797122
 30
0.0
  0
ENDBLK
  5
127
330
124
100
AcDbEntity
  8
0
100
AcDbBlockEnd
  0
BLOCK
  5
12B
330
129
100
AcDbEntity
  8
0
100
AcDbBlockBegin
  2
block 35
 70
     0
 10
0.0
 20
0.0
 30
0.0
  3
block 35
  1

  0
SPLINE
  5
12D
330
129
100
AcDbEntity
  8
_U+5916_U+6846_U+7EBF1
 62
     3
420
    65280
370
    25
100
AcDbSpline
210
0.0
220
0.0
230
1.0
 70
    11
 71
     3
 72
    20
 73
    16
 74
     0
 42
0.0000000001
 43
0.0000000001
 12
1.0
 22
0.0
 32
0.0
 13
1.0
 23
0.0
 33
0.0
 40
0.0
 40
0.0
 40
0.0
 40
0.0
 40
1.0
 40
1.0
 40
1.0
 40
2.0
 40
2.0
 40
2.0
 40
3.0
 40
3.0
 40
3.0
 40
4.0
 40
4.0
 40
4.0
 40
5.0
 40
5.0
 40
5.0
 40
5.0
 10
218.9723501499766
 20
372.2899524797122
 30
0.0
 10
218.9723501499766
 20
389.3212678989867
 30
0.0
 10
232.778959233402
 20
403.1278769824112
 30
0.0
 10
249.8102746526756
 20
403.1278769824112
 30
0.0
 10
266.8415900719501
 20
403.1278769824112
 30
0.0
 10
280.6481991553737
 20
389.3212678989867
 30
0.0
 10
280.6481991553737
 20
372.2899524797122
 30
0.0
 10
280.6481991553737
 20
355.2586370604386
 30
0.0
 10
266.8415900719501
 20
341.4520279770131
 30
0.0
 10
249.8102746526756
 20
341.4520279770131
 30
0.0
 10
232.778959233402
 20
341.4520279770131
 30
0.0
 10
218.9723501499766
 20
355.2586370604386
 30
0.0
 10
218.9723501499766
 20
372.2899524797122
 30
0.0
 10
218.9723501499766
 20
372.2899524797122
 30
0.0
 10
218.9723501499766
 20
372.2899524797122
 30
0.0
 10
218.9723501499766
 20
372.2899524797122
 30
0.0
  0
ENDBLK
  5
12C
330
129
100
AcDbEntity
  8
0
100
AcDbBlockEnd
  0
BLOCK
  5
131
330
12F
100
AcDbEntity
  8
0
100
AcDbBlockBegin
  2
block 36
 70
     0
 10
0.0
 20
0.0
 30
0.0
  3
block 36
  1

  0
POLYLINE
  5
133
330
12F
100
AcDbEntity
  8
_U+5916_U+6846_U+7EBF4
 62
     4
420
    65535
370
    18
100
AcDb2dPolyline
 66
     1
 10
0.0
 20
0.0
 30
0.0
  0
VERTEX
  5
134
330
133
100
AcDbEntity
  8
_U+5916_U+6846_U+7EBF4
 62
     4
420
    65535
370
    18
100
AcDbVertex
100
AcDb2dVertex
 10
165.1571485668355
 20
447.8731007706419
 30
0.0
  0
VERTEX
  5
135
330
133
100
AcDbEntity
  8
_U+5916_U+6846_U+7EBF4
 62
     4
420
    65535
370
    18
100
AcDbVertex
100
AcDb2dVertex
 10
189.3437560199327
 20
447.8731007706419
 30
0.0
  0
VERTEX
  5
136
330
133
100
AcDbEntity
  8
_U+5916_U+6846_U+7EBF4
 62
     4
420
    65535
370
    18
100
AcDbVertex
100
AcDb2dVertex
 10
189.3437560199327
 20
444.8497748390046
 30
0.0
  0
VERTEX
  5
137
330
133
100
AcDbEntity
  8
_U+5916_U+6846_U+7EBF4
 62
     4
420
    65535
370
    18
100
AcDbVertex
100
AcDb2dVertex
 10
165.1571485668346
 20
444.8497748390046
 30
0.0
  0
VERTEX
  5
138
330
133
100
AcDbEntity
  8
_U+5916_U+6846_U+7EBF4
 62
     4
420
    65535
370
    18
100
AcDbVertex
100
AcDb2dVertex
 10
165.1571485668355
 20
447.8731007706419
 30
0.0
  0
SEQEND
  5
139
330
133
100
AcDbEntity
  8
_U+5916_U+6846_U+7EBF4
 62
     4
420
    65535
370
    18
  0
ENDBLK
  5
132
330
12F
100
AcDbEntity
  8
0
100
AcDbBlockEnd
  0
BLOCK
  5
13C
330
13A
100
AcDbEntity
  8
0
100
AcDbBlockBegin
  2
block 37
 70
     0
 10
0.0
 20
0.0
 30
0.0
  3
block 37
  1

  0
POLYLINE
  5
13E
330
13A
100
AcDbEntity
  8
_U+5916_U+6846_U+7EBF4
 62
     4
420
    65535
370
    18
100
AcDb2dPolyline
 66
     1
 10
0.0
 20
0.0
 30
0.0
  0
VERTEX
  5
13F
330
13E
100
AcDbEntity
  8
_U+5916_U+6846_U+7EBF4
 62
     4
420
    65535
370
    18
100
AcDbVertex
100
AcDb2dVertex
 10
334.4634007385157
 20
447.8731007706419
 30
0.0
  0
VERTEX
  5
140
330
13E
100
AcDbEntity
  8
_U+5916_U+6846_U+7EBF4
 62
     4
420
    65535
370
    18
100
AcDbVertex
100
AcDb2dVertex
 10
310.2767932854185
 20
447.8731007706419
 30
0.0
  0
VERTEX
  5
141
330
13E
100
AcDbEntity
  8
_U+5916_U+6846_U+7EBF4
 62
     4
420
    65535
370
    18
100
AcDbVertex
100
AcDb2dVertex
 10
310.2767932854185
 20
444.8497748390046
 30
0.0
  0
VERTEX
  5
142
330
13E
100
AcDbEntity
  8
_U+5916_U+6846_U+7EBF4
 62
     4
420
    65535
370
    18
100
AcDbVertex
100
AcDb2dVertex
 10
334.4634007385157
 20
444.8497748390046
 30
0.0
  0
VERTEX
  5
143
330
13E
100
AcDbEntity
  8
_U+5916_U+6846_U+7EBF4
 62
     4
420
    65535
370
    18
100
AcDbVertex
100
AcDb2dVertex
 10
334.4634007385157
 20
447.8731007706419
 30
0.0
  0
SEQEND
  5
144
330
13E
100
AcDbEntity
  8
_U+5916_U+6846_U+7EBF4
 62
     4
420
    65535
370
    18
  0
ENDBLK
  5
13D
330
13A
100
AcDbEntity
  8
0
100
AcDbBlockEnd
  0
BLOCK
  5
147
330
145
100
AcDbEntity
  8
0
100
AcDbBlockBegin
  2
block 38
 70
     0
 10
0.0
 20
0.0
 30
0.0
  3
block 38
  1

  0
POLYLINE
  5
149
330
145
100
AcDbEntity
  8
_U+5916_U+6846_U+7EBF4
 62
     4
420
    65535
370
    18
100
AcDb2dPolyline
 66
     1
 10
0.0
 20
0.0
 30
0.0
  0
VERTEX
  5
14A
330
149
100
AcDbEntity
  8
_U+5916_U+6846_U+7EBF4
 62
     4
420
    65535
370
    18
100
AcDbVertex
100
AcDb2dVertex
 10
165.1571485668355
 20
199.9603743763946
 30
0.0
  0
VERTEX
  5
14B
330
149
100
AcDbEntity
  8
_U+5916_U+6846_U+7EBF4
 62
     4
420
    65535
370
    18
100
AcDbVertex
100
AcDb2dVertex
 10
189.3437560199327
 20
199.9603743763946
 30
0.0
  0
VERTEX
  5
14C
330
149
100
AcDbEntity
  8
_U+5916_U+6846_U+7EBF4
 62
     4
420
    65535
370
    18
100
AcDbVertex
100
AcDb2dVertex
 10
189.3437560199327
 20
202.983700308032
 30
0.0
  0
VERTEX
  5
14D
330
149
100
AcDbEntity
  8
_U+5916_U+6846_U+7EBF4
 62
     4
420
    65535
370
    18
100
AcDbVertex
100
AcDb2dVertex
 10
165.1571485668346
 20
202.983700308032
 30
0.0
  0
VERTEX
  5
14E
330
149
100
AcDbEntity
  8
_U+5916_U+6846_U+7EBF4
 62
     4
420
    65535
370
    18
100
AcDbVertex
100
AcDb2dVertex
 10
165.1571485668355
 20
199.9603743763946
 30
0.0
  0
SEQEND
  5
14F
330
149
100
AcDbEntity
  8
_U+5916_U+6846_U+7EBF4
 62
     4
420
    65535
370
    18
  0
ENDBLK
  5
148
330
145
100
AcDbEntity
  8
0
100
AcDbBlockEnd
  0
BLOCK
  5
152
330
150
100
AcDbEntity
  8
0
100
AcDbBlockBegin
  2
block 39
 70
     0
 10
0.0
 20
0.0
 30
0.0
  3
block 39
  1

  0
POLYLINE
  5
154
330
150
100
AcDbEntity
  8
_U+5916_U+6846_U+7EBF4
 62
     4
420
    65535
370
    18
100
AcDb2dPolyline
 66
     1
 10
0.0
 20
0.0
 30
0.0
  0
VERTEX
  5
155
330
154
100
AcDbEntity
  8
_U+5916_U+6846_U+7EBF4
 62
     4
420
    65535
370
    18
100
AcDbVertex
100
AcDb2dVertex
 10
334.4634007385157
 20
199.9603743763946
 30
0.0
  0
VERTEX
  5
156
330
154
100
AcDbEntity
  8
_U+5916_U+6846_U+7EBF4
 62
     4
420
    65535
370
    18
100
AcDbVertex
100
AcDb2dVertex
 10
310.2767932854185
 20
199.9603743763946
 30
0.0
  0
VERTEX
  5
157
330
154
100
AcDbEntity
  8
_U+5916_U+6846_U+7EBF4
 62
     4
420
    65535
370
    18
100
AcDbVertex
100
AcDb2dVertex
 10
310.2767932854185
 20
202.983700308032
 30
0.0
  0
VERTEX
  5
158
330
154
100
AcDbEntity
  8
_U+5916_U+6846_U+7EBF4
 62
     4
420
    65535
370
    18
100
AcDbVertex
100
AcDb2dVertex
 10
334.4634007385157
 20
202.983700308032
 30
0.0
  0
VERTEX
  5
159
330
154
100
AcDbEntity
  8
_U+5916_U+6846_U+7EBF4
 62
     4
420
    65535
370
    18
100
AcDbVertex
100
AcDb2dVertex
 10
334.4634007385157
 20
199.9603743763946
 30
0.0
  0
SEQEND
  5
15A
330
154
100
AcDbEntity
  8
_U+5916_U+6846_U+7EBF4
 62
     4
420
    65535
370
    18
  0
ENDBLK
  5
153
330
150
100
AcDbEntity
  8
0
100
AcDbBlockEnd
  0
BLOCK
  5
15D
330
15B
100
AcDbEntity
  8
0
100
AcDbBlockBegin
  2
block 40
 70
     0
 10
0.0
 20
0.0
 30
0.0
  3
block 40
  1

  0
POLYLINE
  5
15F
330
15B
100
AcDbEntity
  8
_U+5916_U+6846_U+7EBF4
 62
     4
420
    65535
370
    18
100
AcDb2dPolyline
 66
     1
 10
0.0
 20
0.0
 30
0.0
  0
VERTEX
  5
160
330
15F
100
AcDbEntity
  8
_U+5916_U+6846_U+7EBF4
 62
     4
420
    65535
370
    18
100
AcDbVertex
100
AcDb2dVertex
 10
370.7433119181624
 20
311.8234338469692
 30
0.0
  0
VERTEX
  5
161
330
15F
100
AcDbEntity
  8
_U+5916_U+6846_U+7EBF4
 62
     4
420
    65535
370
    18
100
AcDbVertex
100
AcDb2dVertex
 10
370.7433119181624
 20
336.0100413000664
 30
0.0
  0
VERTEX
  5
162
330
15F
100
AcDbEntity
  8
_U+5916_U+6846_U+7EBF4
 62
     4
420
    65535
370
    18
100
AcDbVertex
100
AcDb2dVertex
 10
373.7666378497997
 20
336.0100413000673
 30
0.0
  0
VERTEX
  5
163
330
15F
100
AcDbEntity
  8
_U+5916_U+6846_U+7EBF4
 62
     4
420
    65535
370
    18
100
AcDbVertex
100
AcDb2dVertex
 10
373.7666378497997
 20
311.8234338469692
 30
0.0
  0
VERTEX
  5
164
330
15F
100
AcDbEntity
  8
_U+5916_U+6846_U+7EBF4
 62
     4
420
    65535
370
    18
100
AcDbVertex
100
AcDb2dVertex
 10
370.7433119181624
 20
311.8234338469692
 30
0.0
  0
SEQEND
  5
165
330
15F
100
AcDbEntity
  8
_U+5916_U+6846_U+7EBF4
 62
     4
420
    65535
370
    18
  0
ENDBLK
  5
15E
330
15B
100
AcDbEntity
  8
0
100
AcDbBlockEnd
  0
BLOCK
  5
168
330
166
100
AcDbEntity
  8
0
100
AcDbBlockBegin
  2
block 41
 70
     0
 10
0.0
 20
0.0
 30
0.0
  3
block 41
  1

  0
POLYLINE
  5
16A
330
166
100
AcDbEntity
  8
_U+5916_U+6846_U+7EBF4
 62
     4
420
    65535
370
    18
100
AcDb2dPolyline
 66
     1
 10
0.0
 20
0.0
 30
0.0
  0
VERTEX
  5
16B
330
16A
100
AcDbEntity
  8
_U+5916_U+6846_U+7EBF4
 62
     4
420
    65535
370
    18
100
AcDbVertex
100
AcDb2dVertex
 10
128.8772373871889
 20
311.8234338469692
 30
0.0
  0
VERTEX
  5
16C
330
16A
100
AcDbEntity
  8
_U+5916_U+6846_U+7EBF4
 62
     4
420
    65535
370
    18
100
AcDbVertex
100
AcDb2dVertex
 10
128.8772373871889
 20
336.0100413000664
 30
0.0
  0
VERTEX
  5
16D
330
16A
100
AcDbEntity
  8
_U+5916_U+6846_U+7EBF4
 62
     4
420
    65535
370
    18
100
AcDbVertex
100
AcDb2dVertex
 10
125.8539114555524
 20
336.0100413000673
 30
0.0
  0
VERTEX
  5
16E
330
16A
100
AcDbEntity
  8
_U+5916_U+6846_U+7EBF4
 62
     4
420
    65535
370
    18
100
AcDbVertex
100
AcDb2dVertex
 10
125.8539114555515
 20
311.8234338469692
 30
0.0
  0
VERTEX
  5
16F
330
16A
100
AcDbEntity
  8
_U+5916_U+6846_U+7EBF4
 62
     4
420
    65535
370
    18
100
AcDbVertex
100
AcDb2dVertex
 10
128.8772373871889
 20
311.8234338469692
 30
0.0
  0
SEQEND
  5
170
330
16A
100
AcDbEntity
  8
_U+5916_U+6846_U+7EBF4
 62
     4
420
    65535
370
    18
  0
ENDBLK
  5
169
330
166
100
AcDbEntity
  8
0
100
AcDbBlockEnd
  0
BLOCK
  5
173
330
171
100
AcDbEntity
  8
0
100
AcDbBlockBegin
  2
block 42
 70
     0
 10
0.0
 20
0.0
 30
0.0
  3
block 42
  1

  0
POLYLINE
  5
175
330
171
100
AcDbEntity
  8
_U+5916_U+6846_U+7EBF4
 62
     4
420
    65535
370
    18
100
AcDb2dPolyline
 66
     1
 10
0.0
 20
0.0
 30
0.0
  0
VERTEX
  5
176
330
175
100
AcDbEntity
  8
_U+5916_U+6846_U+7EBF4
 62
     4
420
    65535
370
    18
100
AcDbVertex
100
AcDb2dVertex
 10
165.1571485668355
 20
63.18751197121674
 30
0.0
  0
VERTEX
  5
177
330
175
100
AcDbEntity
  8
_U+5916_U+6846_U+7EBF4
 62
     4
420
    65535
370
    18
100
AcDbVertex
100
AcDb2dVertex
 10
189.3437560199327
 20
63.18751197121674
 30
0.0
  0
VERTEX
  5
178
330
175
100
AcDbEntity
  8
_U+5916_U+6846_U+7EBF4
 62
     4
420
    65535
370
    18
100
AcDbVertex
100
AcDb2dVertex
 10
189.3437560199327
 20
108.5374009457737
 30
0.0
  0
VERTEX
  5
179
330
175
100
AcDbEntity
  8
_U+5916_U+6846_U+7EBF4
 62
     4
420
    65535
370
    18
100
AcDbVertex
100
AcDb2dVertex
 10
165.1571485668346
 20
108.5374009457737
 30
0.0
  0
VERTEX
  5
17A
330
175
100
AcDbEntity
  8
_U+5916_U+6846_U+7EBF4
 62
     4
420
    65535
370
    18
100
AcDbVertex
100
AcDb2dVertex
 10
165.1571485668355
 20
63.18751197121674
 30
0.0
  0
SEQEND
  5
17B
330
175
100
AcDbEntity
  8
_U+5916_U+6846_U+7EBF4
 62
     4
420
    65535
370
    18
  0
ENDBLK
  5
174
330
171
100
AcDbEntity
  8
0
100
AcDbBlockEnd
  0
BLOCK
  5
17E
330
17C
100
AcDbEntity
  8
0
100
AcDbBlockBegin
  2
block 43
 70
     0
 10
0.0
 20
0.0
 30
0.0
  3
block 43
  1

  0
POLYLINE
  5
180
330
17C
100
AcDbEntity
  8
_U+5916_U+6846_U+7EBF4
 62
     4
420
    65535
370
    18
100
AcDb2dPolyline
 66
     1
 10
0.0
 20
0.0
 30
0.0
  0
VERTEX
  5
181
330
180
100
AcDbEntity
  8
_U+5916_U+6846_U+7EBF4
 62
     4
420
    65535
370
    18
100
AcDbVertex
100
AcDb2dVertex
 10
127.0632418282066
 20
85.86245645849522
 30
0.0
  0
VERTEX
  5
182
330
180
100
AcDbEntity
  8
_U+5916_U+6846_U+7EBF4
 62
     4
420
    65535
370
    18
100
AcDbVertex
100
AcDb2dVertex
 10
127.0632418282066
 20
108.5374009457737
 30
0.0
  0
VERTEX
  5
183
330
180
100
AcDbEntity
  8
_U+5916_U+6846_U+7EBF4
 62
     4
420
    65535
370
    18
100
AcDbVertex
100
AcDb2dVertex
 10
128.8772373871889
 20
108.5374009457737
 30
0.0
  0
VERTEX
  5
184
330
180
100
AcDbEntity
  8
_U+5916_U+6846_U+7EBF4
 62
     4
420
    65535
370
    18
100
AcDbVertex
100
AcDb2dVertex
 10
128.8772373871889
 20
63.18751197121674
 30
0.0
  0
VERTEX
  5
185
330
180
100
AcDbEntity
  8
_U+5916_U+6846_U+7EBF4
 62
     4
420
    65535
370
    18
100
AcDbVertex
100
AcDb2dVertex
 10
127.0632418282066
 20
63.18751197121674
 30
0.0
  0
VERTEX
  5
186
330
180
100
AcDbEntity
  8
_U+5916_U+6846_U+7EBF4
 62
     4
420
    65535
370
    18
100
AcDbVertex
100
AcDb2dVertex
 10
125.8539114555515
 20
85.86245645849522
 30
0.0
  0
VERTEX
  5
187
330
180
100
AcDbEntity
  8
_U+5916_U+6846_U+7EBF4
 62
     4
420
    65535
370
    18
100
AcDbVertex
100
AcDb2dVertex
 10
127.0632418282066
 20
85.86245645849522
 30
0.0
  0
SEQEND
  5
188
330
180
100
AcDbEntity
  8
_U+5916_U+6846_U+7EBF4
 62
     4
420
    65535
370
    18
  0
ENDBLK
  5
17F
330
17C
100
AcDbEntity
  8
0
100
AcDbBlockEnd
  0
BLOCK
  5
18B
330
189
100
AcDbEntity
  8
0
100
AcDbBlockBegin
  2
block 44
 70
     0
 10
0.0
 20
0.0
 30
0.0
  3
block 44
  1

  0
POLYLINE
  5
18D
330
189
100
AcDbEntity
  8
_U+5916_U+6846_U+7EBF4
 62
     4
420
    65535
370
    18
100
AcDb2dPolyline
 66
     1
 10
0.0
 20
0.0
 30
0.0
  0
VERTEX
  5
18E
330
18D
100
AcDbEntity
  8
_U+5916_U+6846_U+7EBF4
 62
     4
420
    65535
370
    18
100
AcDbVertex
100
AcDb2dVertex
 10
334.4634007385157
 20
63.18751197121674
 30
0.0
  0
VERTEX
  5
18F
330
18D
100
AcDbEntity
  8
_U+5916_U+6846_U+7EBF4
 62
     4
420
    65535
370
    18
100
AcDbVertex
100
AcDb2dVertex
 10
310.2767932854185
 20
63.18751197121674
 30
0.0
  0
VERTEX
  5
190
330
18D
100
AcDbEntity
  8
_U+5916_U+6846_U+7EBF4
 62
     4
420
    65535
370
    18
100
AcDbVertex
100
AcDb2dVertex
 10
310.2767932854185
 20
108.5374009457737
 30
0.0
  0
VERTEX
  5
191
330
18D
100
AcDbEntity
  8
_U+5916_U+6846_U+7EBF4
 62
     4
420
    65535
370
    18
100
AcDbVertex
100
AcDb2dVertex
 10
334.4634007385157
 20
108.5374009457737
 30
0.0
  0
VERTEX
  5
192
330
18D
100
AcDbEntity
  8
_U+5916_U+6846_U+7EBF4
 62
     4
420
    65535
370
    18
100
AcDbVertex
100
AcDb2dVertex
 10
334.4634007385157
 20
63.18751197121674
 30
0.0
  0
SEQEND
  5
193
330
18D
100
AcDbEntity
  8
_U+5916_U+6846_U+7EBF4
 62
     4
420
    65535
370
    18
  0
ENDBLK
  5
18C
330
189
100
AcDbEntity
  8
0
100
AcDbBlockEnd
  0
BLOCK
  5
196
330
194
100
AcDbEntity
  8
0
100
AcDbBlockBegin
  2
block 45
 70
     0
 10
0.0
 20
0.0
 30
0.0
  3
block 45
  1

  0
POLYLINE
  5
198
330
194
100
AcDbEntity
  8
_U+5916_U+6846_U+7EBF4
 62
     4
420
    65535
370
    18
100
AcDb2dPolyline
 66
     1
 10
0.0
 20
0.0
 30
0.0
  0
VERTEX
  5
199
330
198
100
AcDbEntity
  8
_U+5916_U+6846_U+7EBF4
 62
     4
420
    65535
370
    18
100
AcDbVertex
100
AcDb2dVertex
 10
372.5573074771437
 20
85.86245645849522
 30
0.0
  0
VERTEX
  5
19A
330
198
100
AcDbEntity
  8
_U+5916_U+6846_U+7EBF4
 62
     4
420
    65535
370
    18
100
AcDbVertex
100
AcDb2dVertex
 10
372.5573074771437
 20
108.5374009457737
 30
0.0
  0
VERTEX
  5
19B
330
198
100
AcDbEntity
  8
_U+5916_U+6846_U+7EBF4
 62
     4
420
    65535
370
    18
100
AcDbVertex
100
AcDb2dVertex
 10
370.7433119181624
 20
108.5374009457737
 30
0.0
  0
VERTEX
  5
19C
330
198
100
AcDbEntity
  8
_U+5916_U+6846_U+7EBF4
 62
     4
420
    65535
370
    18
100
AcDbVertex
100
AcDb2dVertex
 10
370.7433119181624
 20
63.18751197121674
 30
0.0
  0
VERTEX
  5
19D
330
198
100
AcDbEntity
  8
_U+5916_U+6846_U+7EBF4
 62
     4
420
    65535
370
    18
100
AcDbVertex
100
AcDb2dVertex
 10
372.5573074771437
 20
63.18751197121674
 30
0.0
  0
VERTEX
  5
19E
330
198
100
AcDbEntity
  8
_U+5916_U+6846_U+7EBF4
 62
     4
420
    65535
370
    18
100
AcDbVertex
100
AcDb2dVertex
 10
373.7666378497997
 20
85.86245645849522
 30
0.0
  0
VERTEX
  5
19F
330
198
100
AcDbEntity
  8
_U+5916_U+6846_U+7EBF4
 62
     4
420
    65535
370
    18
100
AcDbVertex
100
AcDb2dVertex
 10
372.5573074771437
 20
85.86245645849522
 30
0.0
  0
SEQEND
  5
1A0
330
198
100
AcDbEntity
  8
_U+5916_U+6846_U+7EBF4
 62
     4
420
    65535
370
    18
  0
ENDBLK
  5
197
330
194
100
AcDbEntity
  8
0
100
AcDbBlockEnd
  0
BLOCK
  5
1A4
330
1A2
100
AcDbEntity
  8
0
100
AcDbBlockBegin
  2
block 46
 70
     0
 10
0.0
 20
0.0
 30
0.0
  3
block 46
  1

  0
POLYLINE
  5
1A6
330
1A2
100
AcDbEntity
  8
_U+6807_U+6CE8
 62
     1
420
 16711680
370
     9
100
AcDb2dPolyline
 66
     1
 10
0.0
 20
0.0
 30
0.0
  0
VERTEX
  5
1A7
330
1A6
100
AcDbEntity
  8
_U+6807_U+6CE8
 62
     1
420
 16711680
370
     9
100
AcDbVertex
100
AcDb2dVertex
 10
116.7839336606403
 20
453.9197526339158
 30
0.0
  0
VERTEX
  5
1A8
330
1A6
100
AcDbEntity
  8
_U+6807_U+6CE8
 62
     1
420
 16711680
370
     9
100
AcDbVertex
100
AcDb2dVertex
 10
116.7839336606403
 20
491.1027836868961
 30
0.0
  0
SEQEND
  5
1A9
330
1A6
100
AcDbEntity
  8
_U+6807_U+6CE8
 62
     1
420
 16711680
370
     9
  0
ENDBLK
  5
1A5
330
1A2
100
AcDbEntity
  8
0
100
AcDbBlockEnd
  0
BLOCK
  5
1AC
330
1AA
100
AcDbEntity
  8
0
100
AcDbBlockBegin
  2
block 47
 70
     0
 10
0.0
 20
0.0
 30
0.0
  3
block 47
  1

  0
POLYLINE
  5
1AE
330
1AA
100
AcDbEntity
  8
_U+6807_U+6CE8
 62
     1
420
 16711680
370
     9
100
AcDb2dPolyline
 66
     1
 10
0.0
 20
0.0
 30
0.0
  0
VERTEX
  5
1AF
330
1AE
100
AcDbEntity
  8
_U+6807_U+6CE8
 62
     1
420
 16711680
370
     9
100
AcDbVertex
100
AcDb2dVertex
 10
382.83661564471
 20
453.9197526339158
 30
0.0
  0
VERTEX
  5
1B0
330
1AE
100
AcDbEntity
  8
_U+6807_U+6CE8
 62
     1
420
 16711680
370
     9
100
AcDbVertex
100
AcDb2dVertex
 10
382.83661564471
 20
491.1027836868961
 30
0.0
  0
SEQEND
  5
1B1
330
1AE
100
AcDbEntity
  8
_U+6807_U+6CE8
 62
     1
420
 16711680
370
     9
  0
ENDBLK
  5
1AD
330
1AA
100
AcDbEntity
  8
0
100
AcDbBlockEnd
  0
BLOCK
  5
1B4
330
1B2
100
AcDbEntity
  8
0
100
AcDbBlockBegin
  2
block 48
 70
     0
 10
0.0
 20
0.0
 30
0.0
  3
block 48
  1

  0
POLYLINE
  5
1B6
330
1B2
100
AcDbEntity
  8
_U+6807_U+6CE8
 62
     1
420
 16711680
370
     9
100
AcDb2dPolyline
 66
     1
 10
0.0
 20
0.0
 30
0.0
  0
VERTEX
  5
1B7
330
1B6
100
AcDbEntity
  8
_U+6807_U+6CE8
 62
     1
420
 16711680
370
     9
100
AcDbVertex
100
AcDb2dVertex
 10
124.0399158965702
 20
485.0561318236223
 30
0.0
  0
VERTEX
  5
1B8
330
1B6
100
AcDbEntity
  8
_U+6807_U+6CE8
 62
     1
420
 16711680
370
     9
100
AcDbVertex
100
AcDb2dVertex
 10
375.5806334087811
 20
485.0561318236223
 30
0.0
  0
SEQEND
  5
1B9
330
1B6
100
AcDbEntity
  8
_U+6807_U+6CE8
 62
     1
420
 16711680
370
     9
  0
ENDBLK
  5
1B5
330
1B2
100
AcDbEntity
  8
0
100
AcDbBlockEnd
  0
BLOCK
  5
1BC
330
1BA
100
AcDbEntity
  8
0
100
AcDbBlockBegin
  2
block 49
 70
     0
 10
0.0
 20
0.0
 30
0.0
  3
block 49
  1

  0
POLYLINE
  5
1BE
330
1BA
100
AcDbEntity
  8
_U+6807_U+6CE8
370
     0
100
AcDb2dPolyline
 66
     1
 10
0.0
 20
0.0
 30
0.0
  0
VERTEX
  5
1BF
330
1BE
100
AcDbEntity
  8
_U+6807_U+6CE8
370
     0
100
AcDbVertex
100
AcDb2dVertex
 10
124.0399158965702
 20
486.2654621962774
 30
0.0
  0
VERTEX
  5
1C0
330
1BE
100
AcDbEntity
  8
_U+6807_U+6CE8
370
     0
100
AcDbVertex
100
AcDb2dVertex
 10
116.7839336606403
 20
485.0561318236223
 30
0.0
  0
VERTEX
  5
1C1
330
1BE
100
AcDbEntity
  8
_U+6807_U+6CE8
370
     0
100
AcDbVertex
100
AcDb2dVertex
 10
124.0399158965702
 20
483.8468014509672
 30
0.0
  0
VERTEX
  5
1C2
330
1BE
100
AcDbEntity
  8
_U+6807_U+6CE8
370
     0
100
AcDbVertex
100
AcDb2dVertex
 10
124.0399158965702
 20
486.2654621962774
 30
0.0
  0
SEQEND
  5
1C4
330
1BE
100
AcDbEntity
  8
_U+6807_U+6CE8
370
     0
  0
HATCH
  5
1C3
330
1BA
100
AcDbEntity
  8
_U+6807_U+6CE8
 62
     1
420
 16711680
100
AcDbHatch
 10
0.0
 20
0.0
 30
0.0
210
0.0
220
0.0
230
1.0
  2
SOLID
 70
     1
 71
     0
 91
        1
 92
        1
 93
        3
 72
     1
 10
124.0399158965702
 20
486.2654621962774
 11
116.7839336606403
 21
485.0561318236223
 72
     1
 10
116.7839336606403
 20
485.0561318236223
 11
124.0399158965702
 21
483.8468014509672
 72
     1
 10
124.0399158965702
 20
483.8468014509672
 11
124.0399158965702
 21
486.2654621962774
 97
        0
 75
     2
 76
     1
 98
        0
  0
ENDBLK
  5
1BD
330
1BA
100
AcDbEntity
  8
0
100
AcDbBlockEnd
  0
BLOCK
  5
1C7
330
1C5
100
AcDbEntity
  8
0
100
AcDbBlockBegin
  2
block 50
 70
     0
 10
0.0
 20
0.0
 30
0.0
  3
block 50
  1

  0
POLYLINE
  5
1C9
330
1C5
100
AcDbEntity
  8
_U+6807_U+6CE8
370
     0
100
AcDb2dPolyline
 66
     1
 10
0.0
 20
0.0
 30
0.0
  0
VERTEX
  5
1CA
330
1C9
100
AcDbEntity
  8
_U+6807_U+6CE8
370
     0
100
AcDbVertex
100
AcDb2dVertex
 10
375.5806334087811
 20
486.2654621962774
 30
0.0
  0
VERTEX
  5
1CB
330
1C9
100
AcDbEntity
  8
_U+6807_U+6CE8
370
     0
100
AcDbVertex
100
AcDb2dVertex
 10
382.83661564471
 20
485.0561318236223
 30
0.0
  0
VERTEX
  5
1CC
330
1C9
100
AcDbEntity
  8
_U+6807_U+6CE8
370
     0
100
AcDbVertex
100
AcDb2dVertex
 10
375.5806334087811
 20
483.8468014509672
 30
0.0
  0
VERTEX
  5
1CD
330
1C9
100
AcDbEntity
  8
_U+6807_U+6CE8
370
     0
100
AcDbVertex
100
AcDb2dVertex
 10
375.5806334087811
 20
486.2654621962774
 30
0.0
  0
SEQEND
  5
1CF
330
1C9
100
AcDbEntity
  8
_U+6807_U+6CE8
370
     0
  0
HATCH
  5
1CE
330
1C5
100
AcDbEntity
  8
_U+6807_U+6CE8
 62
     1
420
 16711680
100
AcDbHatch
 10
0.0
 20
0.0
 30
0.0
210
0.0
220
0.0
230
1.0
  2
SOLID
 70
     1
 71
     0
 91
        1
 92
        1
 93
        3
 72
     1
 10
375.5806334087811
 20
486.2654621962774
 11
382.83661564471
 21
485.0561318236223
 72
     1
 10
382.83661564471
 20
485.0561318236223
 11
375.5806334087811
 21
483.8468014509672
 72
     1
 10
375.5806334087811
 20
483.8468014509672
 11
375.5806334087811
 21
486.2654621962774
 97
        0
 75
     2
 76
     1
 98
        0
  0
ENDBLK
  5
1C8
330
1C5
100
AcDbEntity
  8
0
100
AcDbBlockEnd
  0
BLOCK
  5
1D2
330
1D0
100
AcDbEntity
  8
0
100
AcDbBlockBegin
  2
block 51
 70
     0
 10
0.0
 20
0.0
 30
0.0
  3
block 51
  1

  0
MTEXT
  5
1D4
330
1D0
100
AcDbEntity
  8
_U+6807_U+6CE8
 62
     1
420
 16711680
100
AcDbMText
 10
213.7837524414062
 20
488.3443603515625
 30
0.0
 40
11.12583929443359
 41
0.0
 46
0.0
 71
     7
 72
     1
  1
\fMyriad Pro|b0|i0|c0|p34;\W1;440ā0.2
 73
     1
 44
1.0
  0
ENDBLK
  5
1D3
330
1D0
100
AcDbEntity
  8
0
100
AcDbBlockEnd
  0
BLOCK
  5
1D7
330
1D5
100
AcDbEntity
  8
0
100
AcDbBlockBegin
  2
block 52
 70
     0
 10
0.0
 20
0.0
 30
0.0
  3
block 52
  1

  0
POLYLINE
  5
1D9
330
1D5
100
AcDbEntity
  8
_U+6807_U+6CE8
 62
     1
420
 16711680
370
     9
100
AcDb2dPolyline
 66
     1
 10
0.0
 20
0.0
 30
0.0
  0
VERTEX
  5
1DA
330
1D9
100
AcDbEntity
  8
_U+6807_U+6CE8
 62
     1
420
 16711680
370
     9
100
AcDbVertex
100
AcDb2dVertex
 10
128.8772373871889
 20
441.8264489073672
 30
0.0
  0
VERTEX
  5
1DB
330
1D9
100
AcDbEntity
  8
_U+6807_U+6CE8
 62
     1
420
 16711680
370
     9
100
AcDbVertex
100
AcDb2dVertex
 10
128.8772373871889
 20
472.3645960340318
 30
0.0
  0
SEQEND
  5
1DC
330
1D9
100
AcDbEntity
  8
_U+6807_U+6CE8
 62
     1
420
 16711680
370
     9
  0
ENDBLK
  5
1D8
330
1D5
100
AcDbEntity
  8
0
100
AcDbBlockEnd
  0
BLOCK
  5
1DF
330
1DD
100
AcDbEntity
  8
0
100
AcDbBlockBegin
  2
block 53
 70
     0
 10
0.0
 20
0.0
 30
0.0
  3
block 53
  1

  0
POLYLINE
  5
1E1
330
1DD
100
AcDbEntity
  8
_U+6807_U+6CE8
 62
     1
420
 16711680
370
     9
100
AcDb2dPolyline
 66
     1
 10
0.0
 20
0.0
 30
0.0
  0
VERTEX
  5
1E2
330
1E1
100
AcDbEntity
  8
_U+6807_U+6CE8
 62
     1
420
 16711680
370
     9
100
AcDbVertex
100
AcDb2dVertex
 10
370.7433119181624
 20
441.8264489073672
 30
0.0
  0
VERTEX
  5
1E3
330
1E1
100
AcDbEntity
  8
_U+6807_U+6CE8
 62
     1
420
 16711680
370
     9
100
AcDbVertex
100
AcDb2dVertex
 10
370.7433119181624
 20
472.3645960340318
 30
0.0
  0
SEQEND
  5
1E4
330
1E1
100
AcDbEntity
  8
_U+6807_U+6CE8
 62
     1
420
 16711680
370
     9
  0
ENDBLK
  5
1E0
330
1DD
100
AcDbEntity
  8
0
100
AcDbBlockEnd
  0
BLOCK
  5
1E7
330
1E5
100
AcDbEntity
  8
0
100
AcDbBlockBegin
  2
block 54
 70
     0
 10
0.0
 20
0.0
 30
0.0
  3
block 54
  1

  0
POLYLINE
  5
1E9
330
1E5
100
AcDbEntity
  8
_U+6807_U+6CE8
 62
     1
420
 16711680
370
     9
100
AcDb2dPolyline
 66
     1
 10
0.0
 20
0.0
 30
0.0
  0
VERTEX
  5
1EA
330
1E9
100
AcDbEntity
  8
_U+6807_U+6CE8
 62
     1
420
 16711680
370
     9
100
AcDbVertex
100
AcDb2dVertex
 10
136.1332196231178
 20
466.317944170758
 30
0.0
  0
VERTEX
  5
1EB
330
1E9
100
AcDbEntity
  8
_U+6807_U+6CE8
 62
     1
420
 16711680
370
     9
100
AcDbVertex
100
AcDb2dVertex
 10
363.4873296822334
 20
466.317944170758
 30
0.0
  0
SEQEND
  5
1EC
330
1E9
100
AcDbEntity
  8
_U+6807_U+6CE8
 62
     1
420
 16711680
370
     9
  0
ENDBLK
  5
1E8
330
1E5
100
AcDbEntity
  8
0
100
AcDbBlockEnd
  0
BLOCK
  5
1EF
330
1ED
100
AcDbEntity
  8
0
100
AcDbBlockBegin
  2
block 55
 70
     0
 10
0.0
 20
0.0
 30
0.0
  3
block 55
  1

  0
POLYLINE
  5
1F1
330
1ED
100
AcDbEntity
  8
_U+6807_U+6CE8
370
     0
100
AcDb2dPolyline
 66
     1
 10
0.0
 20
0.0
 30
0.0
  0
VERTEX
  5
1F2
330
1F1
100
AcDbEntity
  8
_U+6807_U+6CE8
370
     0
100
AcDbVertex
100
AcDb2dVertex
 10
136.1332196231178
 20
467.5272745434122
 30
0.0
  0
VERTEX
  5
1F3
330
1F1
100
AcDbEntity
  8
_U+6807_U+6CE8
370
     0
100
AcDbVertex
100
AcDb2dVertex
 10
128.8772373871889
 20
466.317944170758
 30
0.0
  0
VERTEX
  5
1F4
330
1F1
100
AcDbEntity
  8
_U+6807_U+6CE8
370
     0
100
AcDbVertex
100
AcDb2dVertex
 10
136.1332196231178
 20
465.1086137981029
 30
0.0
  0
VERTEX
  5
1F5
330
1F1
100
AcDbEntity
  8
_U+6807_U+6CE8
370
     0
100
AcDbVertex
100
AcDb2dVertex
 10
136.1332196231178
 20
467.5272745434122
 30
0.0
  0
SEQEND
  5
1F7
330
1F1
100
AcDbEntity
  8
_U+6807_U+6CE8
370
     0
  0
HATCH
  5
1F6
330
1ED
100
AcDbEntity
  8
_U+6807_U+6CE8
 62
     1
420
 16711680
100
AcDbHatch
 10
0.0
 20
0.0
 30
0.0
210
0.0
220
0.0
230
1.0
  2
SOLID
 70
     1
 71
     0
 91
        1
 92
        1
 93
        3
 72
     1
 10
136.1332196231178
 20
467.5272745434122
 11
128.8772373871889
 21
466.317944170758
 72
     1
 10
128.8772373871889
 20
466.317944170758
 11
136.1332196231178
 21
465.1086137981029
 72
     1
 10
136.1332196231178
 20
465.1086137981029
 11
136.1332196231178
 21
467.5272745434122
 97
        0
 75
     2
 76
     1
 98
        0
  0
ENDBLK
  5
1F0
330
1ED
100
AcDbEntity
  8
0
100
AcDbBlockEnd
  0
BLOCK
  5
1FA
330
1F8
100
AcDbEntity
  8
0
100
AcDbBlockBegin
  2
block 56
 70
     0
 10
0.0
 20
0.0
 30
0.0
  3
block 56
  1

  0
POLYLINE
  5
1FC
330
1F8
100
AcDbEntity
  8
_U+6807_U+6CE8
370
     0
100
AcDb2dPolyline
 66
     1
 10
0.0
 20
0.0
 30
0.0
  0
VERTEX
  5
1FD
330
1FC
100
AcDbEntity
  8
_U+6807_U+6CE8
370
     0
100
AcDbVertex
100
AcDb2dVertex
 10
363.4873296822334
 20
467.5272745434122
 30
0.0
  0
VERTEX
  5
1FE
330
1FC
100
AcDbEntity
  8
_U+6807_U+6CE8
370
     0
100
AcDbVertex
100
AcDb2dVertex
 10
370.7433119181624
 20
466.317944170758
 30
0.0
  0
VERTEX
  5
1FF
330
1FC
100
AcDbEntity
  8
_U+6807_U+6CE8
370
     0
100
AcDbVertex
100
AcDb2dVertex
 10
363.4873296822334
 20
465.1086137981029
 30
0.0
  0
VERTEX
  5
200
330
1FC
100
AcDbEntity
  8
_U+6807_U+6CE8
370
     0
100
AcDbVertex
100
AcDb2dVertex
 10
363.4873296822334
 20
467.5272745434122
 30
0.0
  0
SEQEND
  5
202
330
1FC
100
AcDbEntity
  8
_U+6807_U+6CE8
370
     0
  0
HATCH
  5
201
330
1F8
100
AcDbEntity
  8
_U+6807_U+6CE8
 62
     1
420
 16711680
100
AcDbHatch
 10
0.0
 20
0.0
 30
0.0
210
0.0
220
0.0
230
1.0
  2
SOLID
 70
     1
 71
     0
 91
        1
 92
        1
 93
        3
 72
     1
 10
363.4873296822334
 20
467.5272745434122
 11
370.7433119181624
 21
466.317944170758
 72
     1
 10
370.7433119181624
 20
466.317944170758
 11
363.4873296822334
 21
465.1086137981029
 72
     1
 10
363.4873296822334
 20
465.1086137981029
 11
363.4873296822334
 21
467.5272745434122
 97
        0
 75
     2
 76
     1
 98
        0
  0
ENDBLK
  5
1FB
330
1F8
100
AcDbEntity
  8
0
100
AcDbBlockEnd
  0
BLOCK
  5
205
330
203
100
AcDbEntity
  8
0
100
AcDbBlockBegin
  2
block 57
 70
     0
 10
0.0
 20
0.0
 30
0.0
  3
block 57
  1

  0
MTEXT
  5
207
330
203
100
AcDbEntity
  8
_U+6807_U+6CE8
 62
     1
420
 16711680
100
AcDbMText
 10
233.9162139892578
 20
469.3412780761719
 30
0.0
 40
11.12583929443359
 41
0.0
 46
0.0
 71
     7
 72
     1
  1
\fMyriad Pro|b0|i0|c0|p34;\W1;400
 73
     1
 44
1.0
  0
ENDBLK
  5
206
330
203
100
AcDbEntity
  8
0
100
AcDbBlockEnd
  0
BLOCK
  5
20A
330
208
100
AcDbEntity
  8
0
100
AcDbBlockBegin
  2
block 58
 70
     0
 10
0.0
 20
0.0
 30
0.0
  3
block 58
  1

  0
POLYLINE
  5
20C
330
208
100
AcDbEntity
  8
_U+6807_U+6CE8
 62
     1
420
 16711680
370
     9
100
AcDb2dPolyline
 66
     1
 10
0.0
 20
0.0
 30
0.0
  0
VERTEX
  5
20D
330
20C
100
AcDbEntity
  8
_U+6807_U+6CE8
 62
     1
420
 16711680
370
     9
100
AcDbVertex
100
AcDb2dVertex
 10
119.8072595922777
 20
456.9430785655532
 30
0.0
  0
VERTEX
  5
20E
330
20C
100
AcDbEntity
  8
_U+6807_U+6CE8
 62
     1
420
 16711680
370
     9
100
AcDbVertex
100
AcDb2dVertex
 10
78.17706356833332
 20
456.9430785655532
 30
0.0
  0
SEQEND
  5
20F
330
20C
100
AcDbEntity
  8
_U+6807_U+6CE8
 62
     1
420
 16711680
370
     9
  0
ENDBLK
  5
20B
330
208
100
AcDbEntity
  8
0
100
AcDbBlockEnd
  0
BLOCK
  5
212
330
210
100
AcDbEntity
  8
0
100
AcDbBlockBegin
  2
block 59
 70
     0
 10
0.0
 20
0.0
 30
0.0
  3
block 59
  1

  0
POLYLINE
  5
214
330
210
100
AcDbEntity
  8
_U+6807_U+6CE8
 62
     1
420
 16711680
370
     9
100
AcDb2dPolyline
 66
     1
 10
0.0
 20
0.0
 30
0.0
  0
VERTEX
  5
215
330
214
100
AcDbEntity
  8
_U+6807_U+6CE8
 62
     1
420
 16711680
370
     9
100
AcDbVertex
100
AcDb2dVertex
 10
119.8072595922777
 20
190.8903965814825
 30
0.0
  0
VERTEX
  5
216
330
214
100
AcDbEntity
  8
_U+6807_U+6CE8
 62
     1
420
 16711680
370
     9
100
AcDbVertex
100
AcDb2dVertex
 10
78.17706356833332
 20
190.8903965814825
 30
0.0
  0
SEQEND
  5
217
330
214
100
AcDbEntity
  8
_U+6807_U+6CE8
 62
     1
420
 16711680
370
     9
  0
ENDBLK
  5
213
330
210
100
AcDbEntity
  8
0
100
AcDbBlockEnd
  0
BLOCK
  5
21A
330
218
100
AcDbEntity
  8
0
100
AcDbBlockBegin
  2
block 60
 70
     0
 10
0.0
 20
0.0
 30
0.0
  3
block 60
  1

  0
POLYLINE
  5
21C
330
218
100
AcDbEntity
  8
_U+6807_U+6CE8
 62
     1
420
 16711680
370
     9
100
AcDb2dPolyline
 66
     1
 10
0.0
 20
0.0
 30
0.0
  0
VERTEX
  5
21D
330
21C
100
AcDbEntity
  8
_U+6807_U+6CE8
 62
     1
420
 16711680
370
     9
100
AcDbVertex
100
AcDb2dVertex
 10
84.22371543160807
 20
449.6870963296242
 30
0.0
  0
VERTEX
  5
21E
330
21C
100
AcDbEntity
  8
_U+6807_U+6CE8
 62
     1
420
 16711680
370
     9
100
AcDbVertex
100
AcDb2dVertex
 10
84.22371543160807
 20
198.1463788174115
 30
0.0
  0
SEQEND
  5
21F
330
21C
100
AcDbEntity
  8
_U+6807_U+6CE8
 62
     1
420
 16711680
370
     9
  0
ENDBLK
  5
21B
330
218
100
AcDbEntity
  8
0
100
AcDbBlockEnd
  0
BLOCK
  5
222
330
220
100
AcDbEntity
  8
0
100
AcDbBlockBegin
  2
block 61
 70
     0
 10
0.0
 20
0.0
 30
0.0
  3
block 61
  1

  0
POLYLINE
  5
224
330
220
100
AcDbEntity
  8
_U+6807_U+6CE8
370
     0
100
AcDb2dPolyline
 66
     1
 10
0.0
 20
0.0
 30
0.0
  0
VERTEX
  5
225
330
224
100
AcDbEntity
  8
_U+6807_U+6CE8
370
     0
100
AcDbVertex
100
AcDb2dVertex
 10
83.01438505895385
 20
449.6870963296242
 30
0.0
  0
VERTEX
  5
226
330
224
100
AcDbEntity
  8
_U+6807_U+6CE8
370
     0
100
AcDbVertex
100
AcDb2dVertex
 10
84.22371543160807
 20
456.9430785655532
 30
0.0
  0
VERTEX
  5
227
330
224
100
AcDbEntity
  8
_U+6807_U+6CE8
370
     0
100
AcDbVertex
100
AcDb2dVertex
 10
85.4330458042632
 20
449.6870963296242
 30
0.0
  0
VERTEX
  5
228
330
224
100
AcDbEntity
  8
_U+6807_U+6CE8
370
     0
100
AcDbVertex
100
AcDb2dVertex
 10
83.01438505895385
 20
449.6870963296242
 30
0.0
  0
SEQEND
  5
22A
330
224
100
AcDbEntity
  8
_U+6807_U+6CE8
370
     0
  0
HATCH
  5
229
330
220
100
AcDbEntity
  8
_U+6807_U+6CE8
 62
     1
420
 16711680
100
AcDbHatch
 10
0.0
 20
0.0
 30
0.0
210
0.0
220
0.0
230
1.0
  2
SOLID
 70
     1
 71
     0
 91
        1
 92
        1
 93
        3
 72
     1
 10
83.01438505895385
 20
449.6870963296242
 11
84.22371543160807
 21
456.9430785655532
 72
     1
 10
84.22371543160807
 20
456.9430785655532
 11
85.4330458042632
 21
449.6870963296242
 72
     1
 10
85.4330458042632
 20
449.6870963296242
 11
83.01438505895385
 21
449.6870963296242
 97
        0
 75
     2
 76
     1
 98
        0
  0
ENDBLK
  5
223
330
220
100
AcDbEntity
  8
0
100
AcDbBlockEnd
  0
BLOCK
  5
22D
330
22B
100
AcDbEntity
  8
0
100
AcDbBlockBegin
  2
block 62
 70
     0
 10
0.0
 20
0.0
 30
0.0
  3
block 62
  1

  0
POLYLINE
  5
22F
330
22B
100
AcDbEntity
  8
_U+6807_U+6CE8
370
     0
100
AcDb2dPolyline
 66
     1
 10
0.0
 20
0.0
 30
0.0
  0
VERTEX
  5
230
330
22F
100
AcDbEntity
  8
_U+6807_U+6CE8
370
     0
100
AcDbVertex
100
AcDb2dVertex
 10
83.01438505895294
 20
198.1463788174115
 30
0.0
  0
VERTEX
  5
231
330
22F
100
AcDbEntity
  8
_U+6807_U+6CE8
370
     0
100
AcDbVertex
100
AcDb2dVertex
 10
84.22371543160807
 20
190.8903965814825
 30
0.0
  0
VERTEX
  5
232
330
22F
100
AcDbEntity
  8
_U+6807_U+6CE8
370
     0
100
AcDbVertex
100
AcDb2dVertex
 10
85.43304580426229
 20
198.1463788174115
 30
0.0
  0
VERTEX
  5
233
330
22F
100
AcDbEntity
  8
_U+6807_U+6CE8
370
     0
100
AcDbVertex
100
AcDb2dVertex
 10
83.01438505895294
 20
198.1463788174115
 30
0.0
  0
SEQEND
  5
235
330
22F
100
AcDbEntity
  8
_U+6807_U+6CE8
370
     0
  0
HATCH
  5
234
330
22B
100
AcDbEntity
  8
_U+6807_U+6CE8
 62
     1
420
 16711680
100
AcDbHatch
 10
0.0
 20
0.0
 30
0.0
210
0.0
220
0.0
230
1.0
  2
SOLID
 70
     1
 71
     0
 91
        1
 92
        1
 93
        3
 72
     1
 10
83.01438505895294
 20
198.1463788174115
 11
84.22371543160807
 21
190.8903965814825
 72
     1
 10
84.22371543160807
 20
190.8903965814825
 11
85.43304580426229
 21
198.1463788174115
 72
     1
 10
85.43304580426229
 20
198.1463788174115
 11
83.01438505895294
 21
198.1463788174115
 97
        0
 75
     2
 76
     1
 98
        0
  0
ENDBLK
  5
22E
330
22B
100
AcDbEntity
  8
0
100
AcDbBlockEnd
  0
BLOCK
  5
238
330
236
100
AcDbEntity
  8
0
100
AcDbBlockBegin
  2
block 63
 70
     0
 10
0.0
 20
0.0
 30
0.0
  3
block 63
  1

  0
MTEXT
  5
23A
330
236
100
AcDbEntity
  8
_U+6807_U+6CE8
 62
     1
420
 16711680
100
AcDbMText
 10
80.93548583984375
 20
287.8906249999991
 30
0.0
 40
11.12583929443359
 41
0.0
 46
0.0
 71
     7
 72
     1
  1
\fMyriad Pro|b0|i0|c0|p34;\W1;440ā0.2
 11
6.123233995736766E-17
 21
1.0
 31
0.0
 73
     1
 44
1.0
  0
ENDBLK
  5
239
330
236
100
AcDbEntity
  8
0
100
AcDbBlockEnd
  0
BLOCK
  5
23D
330
23B
100
AcDbEntity
  8
0
100
AcDbBlockBegin
  2
block 64
 70
     0
 10
0.0
 20
0.0
 30
0.0
  3
block 64
  1

  0
POLYLINE
  5
23F
330
23B
100
AcDbEntity
  8
_U+6807_U+6CE8
 62
     1
420
 16711680
370
     9
100
AcDb2dPolyline
 66
     1
 10
0.0
 20
0.0
 30
0.0
  0
VERTEX
  5
240
330
23F
100
AcDbEntity
  8
_U+6807_U+6CE8
 62
     1
420
 16711680
370
     9
100
AcDbVertex
100
AcDb2dVertex
 10
131.9005633188262
 20
444.8497748390046
 30
0.0
  0
VERTEX
  5
241
330
23F
100
AcDbEntity
  8
_U+6807_U+6CE8
 62
     1
420
 16711680
370
     9
100
AcDbVertex
100
AcDb2dVertex
 10
98.77407361892074
 20
444.8497748390046
 30
0.0
  0
SEQEND
  5
242
330
23F
100
AcDbEntity
  8
_U+6807_U+6CE8
 62
     1
420
 16711680
370
     9
  0
ENDBLK
  5
23E
330
23B
100
AcDbEntity
  8
0
100
AcDbBlockEnd
  0
BLOCK
  5
245
330
243
100
AcDbEntity
  8
0
100
AcDbBlockBegin
  2
block 65
 70
     0
 10
0.0
 20
0.0
 30
0.0
  3
block 65
  1

  0
POLYLINE
  5
247
330
243
100
AcDbEntity
  8
_U+6807_U+6CE8
 62
     1
420
 16711680
370
     9
100
AcDb2dPolyline
 66
     1
 10
0.0
 20
0.0
 30
0.0
  0
VERTEX
  5
248
330
247
100
AcDbEntity
  8
_U+6807_U+6CE8
 62
     1
420
 16711680
370
     9
100
AcDbVertex
100
AcDb2dVertex
 10
131.9005633188262
 20
202.983700308032
 30
0.0
  0
VERTEX
  5
249
330
247
100
AcDbEntity
  8
_U+6807_U+6CE8
 62
     1
420
 16711680
370
     9
100
AcDbVertex
100
AcDb2dVertex
 10
98.77407361891983
 20
202.983700308032
 30
0.0
  0
SEQEND
  5
24A
330
247
100
AcDbEntity
  8
_U+6807_U+6CE8
 62
     1
420
 16711680
370
     9
  0
ENDBLK
  5
246
330
243
100
AcDbEntity
  8
0
100
AcDbBlockEnd
  0
BLOCK
  5
24D
330
24B
100
AcDbEntity
  8
0
100
AcDbBlockBegin
  2
block 66
 70
     0
 10
0.0
 20
0.0
 30
0.0
  3
block 66
  1

  0
POLYLINE
  5
24F
330
24B
100
AcDbEntity
  8
_U+6807_U+6CE8
 62
     1
420
 16711680
370
     9
100
AcDb2dPolyline
 66
     1
 10
0.0
 20
0.0
 30
0.0
  0
VERTEX
  5
250
330
24F
100
AcDbEntity
  8
_U+6807_U+6CE8
 62
     1
420
 16711680
370
     9
100
AcDbVertex
100
AcDb2dVertex
 10
104.8207254821946
 20
437.5937926030756
 30
0.0
  0
VERTEX
  5
251
330
24F
100
AcDbEntity
  8
_U+6807_U+6CE8
 62
     1
420
 16711680
370
     9
100
AcDbVertex
100
AcDb2dVertex
 10
104.8207254821937
 20
210.239682543961
 30
0.0
  0
SEQEND
  5
252
330
24F
100
AcDbEntity
  8
_U+6807_U+6CE8
 62
     1
420
 16711680
370
     9
  0
ENDBLK
  5
24E
330
24B
100
AcDbEntity
  8
0
100
AcDbBlockEnd
  0
BLOCK
  5
255
330
253
100
AcDbEntity
  8
0
100
AcDbBlockBegin
  2
block 67
 70
     0
 10
0.0
 20
0.0
 30
0.0
  3
block 67
  1

  0
POLYLINE
  5
257
330
253
100
AcDbEntity
  8
_U+6807_U+6CE8
370
     0
100
AcDb2dPolyline
 66
     1
 10
0.0
 20
0.0
 30
0.0
  0
VERTEX
  5
258
330
257
100
AcDbEntity
  8
_U+6807_U+6CE8
370
     0
100
AcDbVertex
100
AcDb2dVertex
 10
103.6113951095394
 20
437.5937926030756
 30
0.0
  0
VERTEX
  5
259
330
257
100
AcDbEntity
  8
_U+6807_U+6CE8
370
     0
100
AcDbVertex
100
AcDb2dVertex
 10
104.8207254821946
 20
444.8497748390046
 30
0.0
  0
VERTEX
  5
25A
330
257
100
AcDbEntity
  8
_U+6807_U+6CE8
370
     0
100
AcDbVertex
100
AcDb2dVertex
 10
106.0300558548497
 20
437.5937926030756
 30
0.0
  0
VERTEX
  5
25B
330
257
100
AcDbEntity
  8
_U+6807_U+6CE8
370
     0
100
AcDbVertex
100
AcDb2dVertex
 10
103.6113951095394
 20
437.5937926030756
 30
0.0
  0
SEQEND
  5
25D
330
257
100
AcDbEntity
  8
_U+6807_U+6CE8
370
     0
  0
HATCH
  5
25C
330
253
100
AcDbEntity
  8
_U+6807_U+6CE8
 62
     1
420
 16711680
100
AcDbHatch
 10
0.0
 20
0.0
 30
0.0
210
0.0
220
0.0
230
1.0
  2
SOLID
 70
     1
 71
     0
 91
        1
 92
        1
 93
        3
 72
     1
 10
103.6113951095394
 20
437.5937926030756
 11
104.8207254821946
 21
444.8497748390046
 72
     1
 10
104.8207254821946
 20
444.8497748390046
 11
106.0300558548497
 21
437.5937926030756
 72
     1
 10
106.0300558548497
 20
437.5937926030756
 11
103.6113951095394
 21
437.5937926030756
 97
        0
 75
     2
 76
     1
 98
        0
  0
ENDBLK
  5
256
330
253
100
AcDbEntity
  8
0
100
AcDbBlockEnd
  0
BLOCK
  5
260
330
25E
100
AcDbEntity
  8
0
100
AcDbBlockBegin
  2
block 68
 70
     0
 10
0.0
 20
0.0
 30
0.0
  3
block 68
  1

  0
POLYLINE
  5
262
330
25E
100
AcDbEntity
  8
_U+6807_U+6CE8
370
     0
100
AcDb2dPolyline
 66
     1
 10
0.0
 20
0.0
 30
0.0
  0
VERTEX
  5
263
330
262
100
AcDbEntity
  8
_U+6807_U+6CE8
370
     0
100
AcDbVertex
100
AcDb2dVertex
 10
103.6113951095394
 20
210.239682543961
 30
0.0
  0
VERTEX
  5
264
330
262
100
AcDbEntity
  8
_U+6807_U+6CE8
370
     0
100
AcDbVertex
100
AcDb2dVertex
 10
104.8207254821937
 20
202.983700308032
 30
0.0
  0
VERTEX
  5
265
330
262
100
AcDbEntity
  8
_U+6807_U+6CE8
370
     0
100
AcDbVertex
100
AcDb2dVertex
 10
106.0300558548488
 20
210.239682543961
 30
0.0
  0
VERTEX
  5
266
330
262
100
AcDbEntity
  8
_U+6807_U+6CE8
370
     0
100
AcDbVertex
100
AcDb2dVertex
 10
103.6113951095394
 20
210.239682543961
 30
0.0
  0
SEQEND
  5
268
330
262
100
AcDbEntity
  8
_U+6807_U+6CE8
370
     0
  0
HATCH
  5
267
330
25E
100
AcDbEntity
  8
_U+6807_U+6CE8
 62
     1
420
 16711680
100
AcDbHatch
 10
0.0
 20
0.0
 30
0.0
210
0.0
220
0.0
230
1.0
  2
SOLID
 70
     1
 71
     0
 91
        1
 92
        1
 93
        3
 72
     1
 10
103.6113951095394
 20
210.239682543961
 11
104.8207254821937
 21
202.983700308032
 72
     1
 10
104.8207254821937
 20
202.983700308032
 11
106.0300558548488
 21
210.239682543961
 72
     1
 10
106.0300558548488
 20
210.239682543961
 11
103.6113951095394
 21
210.239682543961
 97
        0
 75
     2
 76
     1
 98
        0
  0
ENDBLK
  5
261
330
25E
100
AcDbEntity
  8
0
100
AcDbBlockEnd
  0
BLOCK
  5
26B
330
269
100
AcDbEntity
  8
0
100
AcDbBlockBegin
  2
block 69
 70
     0
 10
0.0
 20
0.0
 30
0.0
  3
block 69
  1

  0
MTEXT
  5
26D
330
269
100
AcDbEntity
  8
_U+6807_U+6CE8
 62
     1
420
 16711680
100
AcDbMText
 10
101.7973937988281
 20
308.0224609374991
 30
0.0
 40
11.12583929443359
 41
0.0
 46
0.0
 71
     7
 72
     1
  1
\fMyriad Pro|b0|i0|c0|p34;\W1;400
 11
6.123233995736766E-17
 21
1.0
 31
0.0
 73
     1
 44
1.0
  0
ENDBLK
  5
26C
330
269
100
AcDbEntity
  8
0
100
AcDbBlockEnd
  0
BLOCK
  5
270
330
26E
100
AcDbEntity
  8
0
100
AcDbBlockBegin
  2
block 70
 70
     0
 10
0.0
 20
0.0
 30
0.0
  3
block 70
  1

  0
POLYLINE
  5
272
330
26E
100
AcDbEntity
  8
_U+6807_U+6CE8
 62
     1
420
 16711680
370
     9
100
AcDb2dPolyline
 66
     1
 10
0.0
 20
0.0
 30
0.0
  0
VERTEX
  5
273
330
272
100
AcDbEntity
  8
_U+6807_U+6CE8
 62
     1
420
 16711680
370
     9
100
AcDbVertex
100
AcDb2dVertex
 10
113.7606077290038
 20
114.5840528090484
 30
0.0
  0
VERTEX
  5
274
330
272
100
AcDbEntity
  8
_U+6807_U+6CE8
 62
     1
420
 16711680
370
     9
100
AcDbVertex
100
AcDb2dVertex
 10
93.45823054149787
 20
114.5840528090484
 30
0.0
  0
SEQEND
  5
275
330
272
100
AcDbEntity
  8
_U+6807_U+6CE8
 62
     1
420
 16711680
370
     9
  0
ENDBLK
  5
271
330
26E
100
AcDbEntity
  8
0
100
AcDbBlockEnd
  0
BLOCK
  5
278
330
276
100
AcDbEntity
  8
0
100
AcDbBlockBegin
  2
block 71
 70
     0
 10
0.0
 20
0.0
 30
0.0
  3
block 71
  1

  0
POLYLINE
  5
27A
330
276
100
AcDbEntity
  8
_U+6807_U+6CE8
 62
     1
420
 16711680
370
     9
100
AcDb2dPolyline
 66
     1
 10
0.0
 20
0.0
 30
0.0
  0
VERTEX
  5
27B
330
27A
100
AcDbEntity
  8
_U+6807_U+6CE8
 62
     1
420
 16711680
370
     9
100
AcDbVertex
100
AcDb2dVertex
 10
131.9005633188262
 20
2.720993338472908
 30
0.0
  0
VERTEX
  5
27C
330
27A
100
AcDbEntity
  8
_U+6807_U+6CE8
 62
     1
420
 16711680
370
     9
100
AcDbVertex
100
AcDb2dVertex
 10
93.45823054149787
 20
2.720993338472908
 30
0.0
  0
SEQEND
  5
27D
330
27A
100
AcDbEntity
  8
_U+6807_U+6CE8
 62
     1
420
 16711680
370
     9
  0
ENDBLK
  5
279
330
276
100
AcDbEntity
  8
0
100
AcDbBlockEnd
  0
BLOCK
  5
280
330
27E
100
AcDbEntity
  8
0
100
AcDbBlockBegin
  2
block 72
 70
     0
 10
0.0
 20
0.0
 30
0.0
  3
block 72
  1

  0
POLYLINE
  5
282
330
27E
100
AcDbEntity
  8
_U+6807_U+6CE8
 62
     1
420
 16711680
370
     9
100
AcDb2dPolyline
 66
     1
 10
0.0
 20
0.0
 30
0.0
  0
VERTEX
  5
283
330
282
100
AcDbEntity
  8
_U+6807_U+6CE8
 62
     1
420
 16711680
370
     9
100
AcDbVertex
100
AcDb2dVertex
 10
99.5048824047717
 20
107.3280705731195
 30
0.0
  0
VERTEX
  5
284
330
282
100
AcDbEntity
  8
_U+6807_U+6CE8
 62
     1
420
 16711680
370
     9
100
AcDbVertex
100
AcDb2dVertex
 10
99.5048824047717
 20
9.976975574401877
 30
0.0
  0
SEQEND
  5
285
330
282
100
AcDbEntity
  8
_U+6807_U+6CE8
 62
     1
420
 16711680
370
     9
  0
ENDBLK
  5
281
330
27E
100
AcDbEntity
  8
0
100
AcDbBlockEnd
  0
BLOCK
  5
288
330
286
100
AcDbEntity
  8
0
100
AcDbBlockBegin
  2
block 73
 70
     0
 10
0.0
 20
0.0
 30
0.0
  3
block 73
  1

  0
POLYLINE
  5
28A
330
286
100
AcDbEntity
  8
_U+6807_U+6CE8
370
     0
100
AcDb2dPolyline
 66
     1
 10
0.0
 20
0.0
 30
0.0
  0
VERTEX
  5
28B
330
28A
100
AcDbEntity
  8
_U+6807_U+6CE8
370
     0
100
AcDbVertex
100
AcDb2dVertex
 10
98.29555203211748
 20
107.3280705731195
 30
0.0
  0
VERTEX
  5
28C
330
28A
100
AcDbEntity
  8
_U+6807_U+6CE8
370
     0
100
AcDbVertex
100
AcDb2dVertex
 10
99.5048824047717
 20
114.5840528090484
 30
0.0
  0
VERTEX
  5
28D
330
28A
100
AcDbEntity
  8
_U+6807_U+6CE8
370
     0
100
AcDbVertex
100
AcDb2dVertex
 10
100.7142127774277
 20
107.3280705731195
 30
0.0
  0
VERTEX
  5
28E
330
28A
100
AcDbEntity
  8
_U+6807_U+6CE8
370
     0
100
AcDbVertex
100
AcDb2dVertex
 10
98.29555203211748
 20
107.3280705731195
 30
0.0
  0
SEQEND
  5
290
330
28A
100
AcDbEntity
  8
_U+6807_U+6CE8
370
     0
  0
HATCH
  5
28F
330
286
100
AcDbEntity
  8
_U+6807_U+6CE8
 62
     1
420
 16711680
100
AcDbHatch
 10
0.0
 20
0.0
 30
0.0
210
0.0
220
0.0
230
1.0
  2
SOLID
 70
     1
 71
     0
 91
        1
 92
        1
 93
        3
 72
     1
 10
98.29555203211748
 20
107.3280705731195
 11
99.5048824047717
 21
114.5840528090484
 72
     1
 10
99.5048824047717
 20
114.5840528090484
 11
100.7142127774277
 21
107.3280705731195
 72
     1
 10
100.7142127774277
 20
107.3280705731195
 11
98.29555203211748
 21
107.3280705731195
 97
        0
 75
     2
 76
     1
 98
        0
  0
ENDBLK
  5
289
330
286
100
AcDbEntity
  8
0
100
AcDbBlockEnd
  0
BLOCK
  5
293
330
291
100
AcDbEntity
  8
0
100
AcDbBlockBegin
  2
block 74
 70
     0
 10
0.0
 20
0.0
 30
0.0
  3
block 74
  1

  0
POLYLINE
  5
295
330
291
100
AcDbEntity
  8
_U+6807_U+6CE8
370
     0
100
AcDb2dPolyline
 66
     1
 10
0.0
 20
0.0
 30
0.0
  0
VERTEX
  5
296
330
295
100
AcDbEntity
  8
_U+6807_U+6CE8
370
     0
100
AcDbVertex
100
AcDb2dVertex
 10
98.29555203211748
 20
9.976975574401877
 30
0.0
  0
VERTEX
  5
297
330
295
100
AcDbEntity
  8
_U+6807_U+6CE8
370
     0
100
AcDbVertex
100
AcDb2dVertex
 10
99.5048824047717
 20
2.720993338472908
 30
0.0
  0
VERTEX
  5
298
330
295
100
AcDbEntity
  8
_U+6807_U+6CE8
370
     0
100
AcDbVertex
100
AcDb2dVertex
 10
100.7142127774277
 20
9.976975574401877
 30
0.0
  0
VERTEX
  5
299
330
295
100
AcDbEntity
  8
_U+6807_U+6CE8
370
     0
100
AcDbVertex
100
AcDb2dVertex
 10
98.29555203211748
 20
9.976975574401877
 30
0.0
  0
SEQEND
  5
29B
330
295
100
AcDbEntity
  8
_U+6807_U+6CE8
370
     0
  0
HATCH
  5
29A
330
291
100
AcDbEntity
  8
_U+6807_U+6CE8
 62
     1
420
 16711680
100
AcDbHatch
 10
0.0
 20
0.0
 30
0.0
210
0.0
220
0.0
230
1.0
  2
SOLID
 70
     1
 71
     0
 91
        1
 92
        1
 93
        3
 72
     1
 10
98.29555203211748
 20
9.976975574401877
 11
99.5048824047717
 21
2.720993338472908
 72
     1
 10
99.5048824047717
 20
2.720993338472908
 11
100.7142127774277
 21
9.976975574401877
 72
     1
 10
100.7142127774277
 20
9.976975574401877
 11
98.29555203211748
 21
9.976975574401877
 97
        0
 75
     2
 76
     1
 98
        0
  0
ENDBLK
  5
294
330
291
100
AcDbEntity
  8
0
100
AcDbBlockEnd
  0
BLOCK
  5
29E
330
29C
100
AcDbEntity
  8
0
100
AcDbBlockBegin
  2
block 75
 70
     0
 10
0.0
 20
0.0
 30
0.0
  3
block 75
  1

  0
MTEXT
  5
2A0
330
29C
100
AcDbEntity
  8
_U+6807_U+6CE8
 62
     1
420
 16711680
100
AcDbMText
 10
96.4815673828125
 20
41.9638671875
 30
0.0
 40
11.12583929443359
 41
0.0
 46
0.0
 71
     7
 72
     1
  1
\fMyriad Pro|b0|i0|c0|p34;\W1;185
 11
6.123233995736766E-17
 21
1.0
 31
0.0
 73
     1
 44
1.0
  0
ENDBLK
  5
29F
330
29C
100
AcDbEntity
  8
0
100
AcDbBlockEnd
  0
BLOCK
  5
2A3
330
2A1
100
AcDbEntity
  8
0
100
AcDbBlockBegin
  2
block 76
 70
     0
 10
0.0
 20
0.0
 30
0.0
  3
block 76
  1

  0
POLYLINE
  5
2A5
330
2A1
100
AcDbEntity
  8
_U+6807_U+6CE8
 62
     1
420
 16711680
370
     9
100
AcDb2dPolyline
 66
     1
 10
0.0
 20
0.0
 30
0.0
  0
VERTEX
  5
2A6
330
2A5
100
AcDbEntity
  8
_U+6807_U+6CE8
 62
     1
420
 16711680
370
     9
100
AcDbVertex
100
AcDb2dVertex
 10
246.7869487210382
 20
372.2899524797122
 30
0.0
  0
VERTEX
  5
2A7
330
2A5
100
AcDbEntity
  8
_U+6807_U+6CE8
 62
     1
420
 16711680
370
     9
100
AcDbVertex
100
AcDb2dVertex
 10
204.4660553777685
 20
372.2899524797122
 30
0.0
  0
SEQEND
  5
2A8
330
2A5
100
AcDbEntity
  8
_U+6807_U+6CE8
 62
     1
420
 16711680
370
     9
  0
ENDBLK
  5
2A4
330
2A1
100
AcDbEntity
  8
0
100
AcDbBlockEnd
  0
BLOCK
  5
2AB
330
2A9
100
AcDbEntity
  8
0
100
AcDbBlockBegin
  2
block 77
 70
     0
 10
0.0
 20
0.0
 30
0.0
  3
block 77
  1

  0
POLYLINE
  5
2AD
330
2A9
100
AcDbEntity
  8
_U+6807_U+6CE8
 62
     1
420
 16711680
370
     9
100
AcDb2dPolyline
 66
     1
 10
0.0
 20
0.0
 30
0.0
  0
VERTEX
  5
2AE
330
2AD
100
AcDbEntity
  8
_U+6807_U+6CE8
 62
     1
420
 16711680
370
     9
100
AcDbVertex
100
AcDb2dVertex
 10
246.7869487210382
 20
444.8497748390046
 30
0.0
  0
VERTEX
  5
2AF
330
2AD
100
AcDbEntity
  8
_U+6807_U+6CE8
 62
     1
420
 16711680
370
     9
100
AcDbVertex
100
AcDb2dVertex
 10
204.4660553777685
 20
444.8497748390046
 30
0.0
  0
SEQEND
  5
2B0
330
2AD
100
AcDbEntity
  8
_U+6807_U+6CE8
 62
     1
420
 16711680
370
     9
  0
ENDBLK
  5
2AC
330
2A9
100
AcDbEntity
  8
0
100
AcDbBlockEnd
  0
BLOCK
  5
2B3
330
2B1
100
AcDbEntity
  8
0
100
AcDbBlockBegin
  2
block 78
 70
     0
 10
0.0
 20
0.0
 30
0.0
  3
block 78
  1

  0
POLYLINE
  5
2B5
330
2B1
100
AcDbEntity
  8
_U+6807_U+6CE8
 62
     1
420
 16711680
370
     9
100
AcDb2dPolyline
 66
     1
 10
0.0
 20
0.0
 30
0.0
  0
VERTEX
  5
2B6
330
2B5
100
AcDbEntity
  8
_U+6807_U+6CE8
 62
     1
420
 16711680
370
     9
100
AcDbVertex
100
AcDb2dVertex
 10
210.5127072410432
 20
379.545934715642
 30
0.0
  0
VERTEX
  5
2B7
330
2B5
100
AcDbEntity
  8
_U+6807_U+6CE8
 62
     1
420
 16711680
370
     9
100
AcDbVertex
100
AcDb2dVertex
 10
210.5127072410432
 20
437.5937926030756
 30
0.0
  0
SEQEND
  5
2B8
330
2B5
100
AcDbEntity
  8
_U+6807_U+6CE8
 62
     1
420
 16711680
370
     9
  0
ENDBLK
  5
2B4
330
2B1
100
AcDbEntity
  8
0
100
AcDbBlockEnd
  0
BLOCK
  5
2BB
330
2B9
100
AcDbEntity
  8
0
100
AcDbBlockBegin
  2
block 79
 70
     0
 10
0.0
 20
0.0
 30
0.0
  3
block 79
  1

  0
POLYLINE
  5
2BD
330
2B9
100
AcDbEntity
  8
_U+6807_U+6CE8
370
     0
100
AcDb2dPolyline
 66
     1
 10
0.0
 20
0.0
 30
0.0
  0
VERTEX
  5
2BE
330
2BD
100
AcDbEntity
  8
_U+6807_U+6CE8
370
     0
100
AcDbVertex
100
AcDb2dVertex
 10
209.3033768683872
 20
379.545934715642
 30
0.0
  0
VERTEX
  5
2BF
330
2BD
100
AcDbEntity
  8
_U+6807_U+6CE8
370
     0
100
AcDbVertex
100
AcDb2dVertex
 10
210.5127072410432
 20
372.2899524797122
 30
0.0
  0
VERTEX
  5
2C0
330
2BD
100
AcDbEntity
  8
_U+6807_U+6CE8
370
     0
100
AcDbVertex
100
AcDb2dVertex
 10
211.7220376136975
 20
379.545934715642
 30
0.0
  0
VERTEX
  5
2C1
330
2BD
100
AcDbEntity
  8
_U+6807_U+6CE8
370
     0
100
AcDbVertex
100
AcDb2dVertex
 10
209.3033768683872
 20
379.545934715642
 30
0.0
  0
SEQEND
  5
2C3
330
2BD
100
AcDbEntity
  8
_U+6807_U+6CE8
370
     0
  0
HATCH
  5
2C2
330
2B9
100
AcDbEntity
  8
_U+6807_U+6CE8
 62
     1
420
 16711680
100
AcDbHatch
 10
0.0
 20
0.0
 30
0.0
210
0.0
220
0.0
230
1.0
  2
SOLID
 70
     1
 71
     0
 91
        1
 92
        1
 93
        3
 72
     1
 10
209.3033768683872
 20
379.545934715642
 11
210.5127072410432
 21
372.2899524797122
 72
     1
 10
210.5127072410432
 20
372.2899524797122
 11
211.7220376136975
 21
379.545934715642
 72
     1
 10
211.7220376136975
 20
379.545934715642
 11
209.3033768683872
 21
379.545934715642
 97
        0
 75
     2
 76
     1
 98
        0
  0
ENDBLK
  5
2BC
330
2B9
100
AcDbEntity
  8
0
100
AcDbBlockEnd
  0
BLOCK
  5
2C6
330
2C4
100
AcDbEntity
  8
0
100
AcDbBlockBegin
  2
block 80
 70
     0
 10
0.0
 20
0.0
 30
0.0
  3
block 80
  1

  0
POLYLINE
  5
2C8
330
2C4
100
AcDbEntity
  8
_U+6807_U+6CE8
370
     0
100
AcDb2dPolyline
 66
     1
 10
0.0
 20
0.0
 30
0.0
  0
VERTEX
  5
2C9
330
2C8
100
AcDbEntity
  8
_U+6807_U+6CE8
370
     0
100
AcDbVertex
100
AcDb2dVertex
 10
209.3033768683872
 20
437.5937926030756
 30
0.0
  0
VERTEX
  5
2CA
330
2C8
100
AcDbEntity
  8
_U+6807_U+6CE8
370
     0
100
AcDbVertex
100
AcDb2dVertex
 10
210.5127072410432
 20
444.8497748390046
 30
0.0
  0
VERTEX
  5
2CB
330
2C8
100
AcDbEntity
  8
_U+6807_U+6CE8
370
     0
100
AcDbVertex
100
AcDb2dVertex
 10
211.7220376136975
 20
437.5937926030756
 30
0.0
  0
VERTEX
  5
2CC
330
2C8
100
AcDbEntity
  8
_U+6807_U+6CE8
370
     0
100
AcDbVertex
100
AcDb2dVertex
 10
209.3033768683872
 20
437.5937926030756
 30
0.0
  0
SEQEND
  5
2CE
330
2C8
100
AcDbEntity
  8
_U+6807_U+6CE8
370
     0
  0
HATCH
  5
2CD
330
2C4
100
AcDbEntity
  8
_U+6807_U+6CE8
 62
     1
420
 16711680
100
AcDbHatch
 10
0.0
 20
0.0
 30
0.0
210
0.0
220
0.0
230
1.0
  2
SOLID
 70
     1
 71
     0
 91
        1
 92
        1
 93
        3
 72
     1
 10
209.3033768683872
 20
437.5937926030756
 11
210.5127072410432
 21
444.8497748390046
 72
     1
 10
210.5127072410432
 20
444.8497748390046
 11
211.7220376136975
 21
437.5937926030756
 72
     1
 10
211.7220376136975
 20
437.5937926030756
 11
209.3033768683872
 21
437.5937926030756
 97
        0
 75
     2
 76
     1
 98
        0
  0
ENDBLK
  5
2C7
330
2C4
100
AcDbEntity
  8
0
100
AcDbBlockEnd
  0
BLOCK
  5
2D1
330
2CF
100
AcDbEntity
  8
0
100
AcDbBlockBegin
  2
block 81
 70
     0
 10
0.0
 20
0.0
 30
0.0
  3
block 81
  1

  0
MTEXT
  5
2D3
330
2CF
100
AcDbEntity
  8
_U+6807_U+6CE8
 62
     1
420
 16711680
100
AcDbMText
 10
207.4893798828125
 20
391.8808593749991
 30
0.0
 40
11.12583929443359
 41
0.0
 46
0.0
 71
     7
 72
     1
  1
\fMyriad Pro|b0|i0|c0|p34;\W1;120
 11
6.123233995736766E-17
 21
1.0
 31
0.0
 73
     1
 44
1.0
  0
ENDBLK
  5
2D2
330
2CF
100
AcDbEntity
  8
0
100
AcDbBlockEnd
  0
BLOCK
  5
2D6
330
2D4
100
AcDbEntity
  8
0
100
AcDbBlockBegin
  2
block 82
 70
     0
 10
0.0
 20
0.0
 30
0.0
  3
block 82
  1

  0
POLYLINE
  5
2D8
330
2D4
100
AcDbEntity
  8
_U+6807_U+6CE8
 62
     1
420
 16711680
370
     9
100
AcDb2dPolyline
 66
     1
 10
0.0
 20
0.0
 30
0.0
  0
VERTEX
  5
2D9
330
2D8
100
AcDbEntity
  8
_U+6807_U+6CE8
 62
     1
420
 16711680
370
     9
100
AcDbVertex
100
AcDb2dVertex
 10
116.7839336606403
 20
320.8934116418804
 30
0.0
  0
VERTEX
  5
2DA
330
2D8
100
AcDbEntity
  8
_U+6807_U+6CE8
 62
     1
420
 16711680
370
     9
100
AcDbVertex
100
AcDb2dVertex
 10
116.7839336606403
 20
300.2975007739533
 30
0.0
  0
SEQEND
  5
2DB
330
2D8
100
AcDbEntity
  8
_U+6807_U+6CE8
 62
     1
420
 16711680
370
     9
  0
ENDBLK
  5
2D7
330
2D4
100
AcDbEntity
  8
0
100
AcDbBlockEnd
  0
BLOCK
  5
2DE
330
2DC
100
AcDbEntity
  8
0
100
AcDbBlockBegin
  2
block 83
 70
     0
 10
0.0
 20
0.0
 30
0.0
  3
block 83
  1

  0
POLYLINE
  5
2E0
330
2DC
100
AcDbEntity
  8
_U+6807_U+6CE8
 62
     1
420
 16711680
370
     9
100
AcDb2dPolyline
 66
     1
 10
0.0
 20
0.0
 30
0.0
  0
VERTEX
  5
2E1
330
2E0
100
AcDbEntity
  8
_U+6807_U+6CE8
 62
     1
420
 16711680
370
     9
100
AcDbVertex
100
AcDb2dVertex
 10
128.8772373871889
 20
320.8934116418804
 30
0.0
  0
VERTEX
  5
2E2
330
2E0
100
AcDbEntity
  8
_U+6807_U+6CE8
 62
     1
420
 16711680
370
     9
100
AcDbVertex
100
AcDb2dVertex
 10
128.8772373871889
 20
300.2975007739533
 30
0.0
  0
SEQEND
  5
2E3
330
2E0
100
AcDbEntity
  8
_U+6807_U+6CE8
 62
     1
420
 16711680
370
     9
  0
ENDBLK
  5
2DF
330
2DC
100
AcDbEntity
  8
0
100
AcDbBlockEnd
  0
BLOCK
  5
2E6
330
2E4
100
AcDbEntity
  8
0
100
AcDbBlockBegin
  2
block 84
 70
     0
 10
0.0
 20
0.0
 30
0.0
  3
block 84
  1

  0
POLYLINE
  5
2E8
330
2E4
100
AcDbEntity
  8
_U+6807_U+6CE8
 62
     1
420
 16711680
370
     9
100
AcDb2dPolyline
 66
     1
 10
0.0
 20
0.0
 30
0.0
  0
VERTEX
  5
2E9
330
2E8
100
AcDbEntity
  8
_U+6807_U+6CE8
 62
     1
420
 16711680
370
     9
100
AcDbVertex
100
AcDb2dVertex
 10
109.5279514247113
 20
306.344152637228
 30
0.0
  0
VERTEX
  5
2EA
330
2E8
100
AcDbEntity
  8
_U+6807_U+6CE8
 62
     1
420
 16711680
370
     9
100
AcDbVertex
100
AcDb2dVertex
 10
102.2719691887824
 20
306.344152637228
 30
0.0
  0
SEQEND
  5
2EB
330
2E8
100
AcDbEntity
  8
_U+6807_U+6CE8
 62
     1
420
 16711680
370
     9
  0
ENDBLK
  5
2E7
330
2E4
100
AcDbEntity
  8
0
100
AcDbBlockEnd
  0
BLOCK
  5
2EE
330
2EC
100
AcDbEntity
  8
0
100
AcDbBlockBegin
  2
block 85
 70
     0
 10
0.0
 20
0.0
 30
0.0
  3
block 85
  1

  0
POLYLINE
  5
2F0
330
2EC
100
AcDbEntity
  8
_U+6807_U+6CE8
 62
     1
420
 16711680
370
     9
100
AcDb2dPolyline
 66
     1
 10
0.0
 20
0.0
 30
0.0
  0
VERTEX
  5
2F1
330
2F0
100
AcDbEntity
  8
_U+6807_U+6CE8
 62
     1
420
 16711680
370
     9
100
AcDbVertex
100
AcDb2dVertex
 10
136.1332196231178
 20
306.344152637228
 30
0.0
  0
VERTEX
  5
2F2
330
2F0
100
AcDbEntity
  8
_U+6807_U+6CE8
 62
     1
420
 16711680
370
     9
100
AcDbVertex
100
AcDb2dVertex
 10
167.4491175588191
 20
306.344152637228
 30
0.0
  0
SEQEND
  5
2F3
330
2F0
100
AcDbEntity
  8
_U+6807_U+6CE8
 62
     1
420
 16711680
370
     9
  0
ENDBLK
  5
2EF
330
2EC
100
AcDbEntity
  8
0
100
AcDbBlockEnd
  0
BLOCK
  5
2F6
330
2F4
100
AcDbEntity
  8
0
100
AcDbBlockBegin
  2
block 86
 70
     0
 10
0.0
 20
0.0
 30
0.0
  3
block 86
  1

  0
POLYLINE
  5
2F8
330
2F4
100
AcDbEntity
  8
_U+6807_U+6CE8
 62
     1
420
 16711680
370
     9
100
AcDb2dPolyline
 66
     1
 10
0.0
 20
0.0
 30
0.0
  0
VERTEX
  5
2F9
330
2F8
100
AcDbEntity
  8
_U+6807_U+6CE8
 62
     1
420
 16711680
370
     9
100
AcDbVertex
100
AcDb2dVertex
 10
116.7839336606403
 20
306.344152637228
 30
0.0
  0
VERTEX
  5
2FA
330
2F8
100
AcDbEntity
  8
_U+6807_U+6CE8
 62
     1
420
 16711680
370
     9
100
AcDbVertex
100
AcDb2dVertex
 10
128.8772373871889
 20
306.344152637228
 30
0.0
  0
SEQEND
  5
2FB
330
2F8
100
AcDbEntity
  8
_U+6807_U+6CE8
 62
     1
420
 16711680
370
     9
  0
ENDBLK
  5
2F7
330
2F4
100
AcDbEntity
  8
0
100
AcDbBlockEnd
  0
BLOCK
  5
2FE
330
2FC
100
AcDbEntity
  8
0
100
AcDbBlockBegin
  2
block 87
 70
     0
 10
0.0
 20
0.0
 30
0.0
  3
block 87
  1

  0
POLYLINE
  5
300
330
2FC
100
AcDbEntity
  8
_U+6807_U+6CE8
370
     0
100
AcDb2dPolyline
 66
     1
 10
0.0
 20
0.0
 30
0.0
  0
VERTEX
  5
301
330
300
100
AcDbEntity
  8
_U+6807_U+6CE8
370
     0
100
AcDbVertex
100
AcDb2dVertex
 10
109.5279514247113
 20
307.5534830098823
 30
0.0
  0
VERTEX
  5
302
330
300
100
AcDbEntity
  8
_U+6807_U+6CE8
370
     0
100
AcDbVertex
100
AcDb2dVertex
 10
116.7839336606403
 20
306.344152637228
 30
0.0
  0
VERTEX
  5
303
330
300
100
AcDbEntity
  8
_U+6807_U+6CE8
370
     0
100
AcDbVertex
100
AcDb2dVertex
 10
109.5279514247113
 20
305.1348222645729
 30
0.0
  0
VERTEX
  5
304
330
300
100
AcDbEntity
  8
_U+6807_U+6CE8
370
     0
100
AcDbVertex
100
AcDb2dVertex
 10
109.5279514247113
 20
307.5534830098823
 30
0.0
  0
SEQEND
  5
306
330
300
100
AcDbEntity
  8
_U+6807_U+6CE8
370
     0
  0
HATCH
  5
305
330
2FC
100
AcDbEntity
  8
_U+6807_U+6CE8
 62
     1
420
 16711680
100
AcDbHatch
 10
0.0
 20
0.0
 30
0.0
210
0.0
220
0.0
230
1.0
  2
SOLID
 70
     1
 71
     0
 91
        1
 92
        1
 93
        3
 72
     1
 10
109.5279514247113
 20
307.5534830098823
 11
116.7839336606403
 21
306.344152637228
 72
     1
 10
116.7839336606403
 20
306.344152637228
 11
109.5279514247113
 21
305.1348222645729
 72
     1
 10
109.5279514247113
 20
305.1348222645729
 11
109.5279514247113
 21
307.5534830098823
 97
        0
 75
     2
 76
     1
 98
        0
  0
ENDBLK
  5
2FF
330
2FC
100
AcDbEntity
  8
0
100
AcDbBlockEnd
  0
BLOCK
  5
309
330
307
100
AcDbEntity
  8
0
100
AcDbBlockBegin
  2
block 88
 70
     0
 10
0.0
 20
0.0
 30
0.0
  3
block 88
  1

  0
POLYLINE
  5
30B
330
307
100
AcDbEntity
  8
_U+6807_U+6CE8
370
     0
100
AcDb2dPolyline
 66
     1
 10
0.0
 20
0.0
 30
0.0
  0
VERTEX
  5
30C
330
30B
100
AcDbEntity
  8
_U+6807_U+6CE8
370
     0
100
AcDbVertex
100
AcDb2dVertex
 10
136.1332196231178
 20
307.5534830098823
 30
0.0
  0
VERTEX
  5
30D
330
30B
100
AcDbEntity
  8
_U+6807_U+6CE8
370
     0
100
AcDbVertex
100
AcDb2dVertex
 10
128.8772373871889
 20
306.344152637228
 30
0.0
  0
VERTEX
  5
30E
330
30B
100
AcDbEntity
  8
_U+6807_U+6CE8
370
     0
100
AcDbVertex
100
AcDb2dVertex
 10
136.1332196231178
 20
305.1348222645729
 30
0.0
  0
VERTEX
  5
30F
330
30B
100
AcDbEntity
  8
_U+6807_U+6CE8
370
     0
100
AcDbVertex
100
AcDb2dVertex
 10
136.1332196231178
 20
307.5534830098823
 30
0.0
  0
SEQEND
  5
311
330
30B
100
AcDbEntity
  8
_U+6807_U+6CE8
370
     0
  0
HATCH
  5
310
330
307
100
AcDbEntity
  8
_U+6807_U+6CE8
 62
     1
420
 16711680
100
AcDbHatch
 10
0.0
 20
0.0
 30
0.0
210
0.0
220
0.0
230
1.0
  2
SOLID
 70
     1
 71
     0
 91
        1
 92
        1
 93
        3
 72
     1
 10
136.1332196231178
 20
307.5534830098823
 11
128.8772373871889
 21
306.344152637228
 72
     1
 10
128.8772373871889
 20
306.344152637228
 11
136.1332196231178
 21
305.1348222645729
 72
     1
 10
136.1332196231178
 20
305.1348222645729
 11
136.1332196231178
 21
307.5534830098823
 97
        0
 75
     2
 76
     1
 98
        0
  0
ENDBLK
  5
30A
330
307
100
AcDbEntity
  8
0
100
AcDbBlockEnd
  0
BLOCK
  5
314
330
312
100
AcDbEntity
  8
0
100
AcDbBlockBegin
  2
block 89
 70
     0
 10
0.0
 20
0.0
 30
0.0
  3
block 89
  1

  0
MTEXT
  5
316
330
312
100
AcDbEntity
  8
_U+6807_U+6CE8
 62
     1
420
 16711680
100
AcDbMText
 10
144.8231201171875
 20
309.3674926757812
 30
0.0
 40
11.12583929443359
 41
0.0
 46
0.0
 71
     7
 72
     1
  1
\fMyriad Pro|b0|i0|c0|p34;\W1;20
 73
     1
 44
1.0
  0
ENDBLK
  5
315
330
312
100
AcDbEntity
  8
0
100
AcDbBlockEnd
  0
BLOCK
  5
319
330
317
100
AcDbEntity
  8
0
100
AcDbBlockBegin
  2
block 90
 70
     0
 10
0.0
 20
0.0
 30
0.0
  3
block 90
  1

  0
POLYLINE
  5
31B
330
317
100
AcDbEntity
  8
_U+6807_U+6CE8
 62
     1
420
 16711680
370
     9
100
AcDb2dPolyline
 66
     1
 10
0.0
 20
0.0
 30
0.0
  0
VERTEX
  5
31C
330
31B
100
AcDbEntity
  8
_U+6807_U+6CE8
 62
     1
420
 16711680
370
     9
100
AcDbVertex
100
AcDb2dVertex
 10
179.1600894834301
 20
242.0728593929489
 30
0.0
  0
VERTEX
  5
31D
330
31B
100
AcDbEntity
  8
_U+6807_U+6CE8
 62
     1
420
 16711680
370
     9
100
AcDbVertex
100
AcDb2dVertex
 10
145.5815470037123
 20
216.9911564768954
 30
0.0
  0
SEQEND
  5
31E
330
31B
100
AcDbEntity
  8
_U+6807_U+6CE8
 62
     1
420
 16711680
370
     9
  0
ENDBLK
  5
31A
330
317
100
AcDbEntity
  8
0
100
AcDbBlockEnd
  0
BLOCK
  5
321
330
31F
100
AcDbEntity
  8
0
100
AcDbBlockBegin
  2
block 91
 70
     0
 10
0.0
 20
0.0
 30
0.0
  3
block 91
  1

  0
MTEXT
  5
323
330
31F
100
AcDbEntity
  8
_U+6807_U+6CE8
 62
     1
420
 16711680
100
AcDbMText
 10
150.3099820613861
 20
224.2969350814819
 30
0.0
 40
11.12583937711794
 41
0.0
 46
0.0
 71
     7
 72
     1
  1
\fMyriad Pro|b0|i0|c0|p34;\W1;R10
 11
0.801168972260184
 21
0.5984381988873709
 31
0.0
 73
     1
 44
1.0
  0
ENDBLK
  5
322
330
31F
100
AcDbEntity
  8
0
100
AcDbBlockEnd
  0
BLOCK
  5
326
330
324
100
AcDbEntity
  8
0
100
AcDbBlockBegin
  2
block 92
 70
     0
 10
0.0
 20
0.0
 30
0.0
  3
block 92
  1

  0
POLYLINE
  5
328
330
324
100
AcDbEntity
  8
_U+6807_U+6CE8
 62
     1
420
 16711680
370
     9
100
AcDb2dPolyline
 66
     1
 10
0.0
 20
0.0
 30
0.0
  0
VERTEX
  5
329
330
328
100
AcDbEntity
  8
_U+6807_U+6CE8
 62
     1
420
 16711680
370
     9
100
AcDbVertex
100
AcDb2dVertex
 10
134.9238892504654
 20
209.0303521713086
 30
0.0
  0
VERTEX
  5
32A
330
328
100
AcDbEntity
  8
_U+6807_U+6CE8
 62
     1
420
 16711680
370
     9
100
AcDbVertex
100
AcDb2dVertex
 10
139.7682791383031
 20
212.6488995829386
 30
0.0
  0
SEQEND
  5
32B
330
328
100
AcDbEntity
  8
_U+6807_U+6CE8
 62
     1
420
 16711680
370
     9
  0
ENDBLK
  5
327
330
324
100
AcDbEntity
  8
0
100
AcDbBlockEnd
  0
BLOCK
  5
32E
330
32C
100
AcDbEntity
  8
0
100
AcDbBlockBegin
  2
block 93
 70
     0
 10
0.0
 20
0.0
 30
0.0
  3
block 93
  1

  0
POLYLINE
  5
330
330
32C
100
AcDbEntity
  8
_U+6807_U+6CE8
370
     0
100
AcDb2dPolyline
 66
     1
 10
0.0
 20
0.0
 30
0.0
  0
VERTEX
  5
331
330
330
100
AcDbEntity
  8
_U+6807_U+6CE8
370
     0
100
AcDbVertex
100
AcDb2dVertex
 10
144.8578375213856
 20
217.9600344544633
 30
0.0
  0
VERTEX
  5
332
330
330
100
AcDbEntity
  8
_U+6807_U+6CE8
370
     0
100
AcDbVertex
100
AcDb2dVertex
 10
139.7682791383031
 20
212.6488995829386
 30
0.0
  0
VERTEX
  5
333
330
330
100
AcDbEntity
  8
_U+6807_U+6CE8
370
     0
100
AcDbVertex
100
AcDb2dVertex
 10
146.3052564860373
 20
216.0222784993275
 30
0.0
  0
VERTEX
  5
334
330
330
100
AcDbEntity
  8
_U+6807_U+6CE8
370
     0
100
AcDbVertex
100
AcDb2dVertex
 10
144.8578375213856
 20
217.9600344544633
 30
0.0
  0
SEQEND
  5
336
330
330
100
AcDbEntity
  8
_U+6807_U+6CE8
370
     0
  0
HATCH
  5
335
330
32C
100
AcDbEntity
  8
_U+6807_U+6CE8
 62
     1
420
 16711680
100
AcDbHatch
 10
0.0
 20
0.0
 30
0.0
210
0.0
220
0.0
230
1.0
  2
SOLID
 70
     1
 71
     0
 91
        1
 92
        1
 93
        3
 72
     1
 10
144.8578375213856
 20
217.9600344544633
 11
139.7682791383031
 21
212.6488995829386
 72
     1
 10
139.7682791383031
 20
212.6488995829386
 11
146.3052564860373
 21
216.0222784993275
 72
     1
 10
146.3052564860373
 20
216.0222784993275
 11
144.8578375213856
 21
217.9600344544633
 97
        0
 75
     2
 76
     1
 98
        0
  0
ENDBLK
  5
32F
330
32C
100
AcDbEntity
  8
0
100
AcDbBlockEnd
  0
BLOCK
  5
339
330
337
100
AcDbEntity
  8
0
100
AcDbBlockBegin
  2
block 94
 70
     0
 10
0.0
 20
0.0
 30
0.0
  3
block 94
  1

  0
SPLINE
  5
33B
330
337
100
AcDbEntity
  8
_U+6807_U+6CE8
 62
     1
420
 16711680
370
     9
100
AcDbSpline
210
0.0
220
0.0
230
1.0
 70
     8
 71
     3
 72
    11
 73
     7
 74
     0
 42
0.0000000001
 43
0.0000000001
 12
1.0
 22
0.0
 32
0.0
 13
1.0
 23
0.0
 33
0.0
 40
0.0
 40
0.0
 40
0.0
 40
0.0
 40
1.0
 40
1.0
 40
1.0
 40
2.0
 40
2.0
 40
2.0
 40
2.0
 10
137.8228085767669
 20
203.7239159382807
 30
0.0
 10
140.7534723842182
 20
205.3249448731858
 30
0.0
 10
141.8313544183993
 20
208.9986076901587
 30
0.0
 10
140.2303254834933
 20
211.9292714976109
 30
0.0
 10
139.0962818238022
 20
214.005124492558
 30
0.0
 10
136.8559251803636
 20
215.2290985445597
 30
0.0
 10
134.4964216233466
 20
215.0618752114169
 30
0.0
  0
ENDBLK
  5
33A
330
337
100
AcDbEntity
  8
0
100
AcDbBlockEnd
  0
BLOCK
  5
33E
330
33C
100
AcDbEntity
  8
0
100
AcDbBlockBegin
  2
block 95
 70
     0
 10
0.0
 20
0.0
 30
0.0
  3
block 95
  1

  0
POLYLINE
  5
340
330
33C
100
AcDbEntity
  8
_U+6807_U+6CE8
 62
     1
420
 16711680
370
     9
100
AcDb2dPolyline
 66
     1
 10
0.0
 20
0.0
 30
0.0
  0
VERTEX
  5
341
330
340
100
AcDbEntity
  8
_U+6807_U+6CE8
 62
     1
420
 16711680
370
     9
100
AcDbVertex
100
AcDb2dVertex
 10
428.8807686408909
 20
178.6286693893162
 30
0.0
  0
VERTEX
  5
342
330
340
100
AcDbEntity
  8
_U+6807_U+6CE8
 62
     1
420
 16711680
370
     9
100
AcDbVertex
100
AcDb2dVertex
 10
389.340001247574
 20
192.5260810252676
 30
0.0
  0
SEQEND
  5
343
330
340
100
AcDbEntity
  8
_U+6807_U+6CE8
 62
     1
420
 16711680
370
     9
  0
ENDBLK
  5
33F
330
33C
100
AcDbEntity
  8
0
100
AcDbBlockEnd
  0
BLOCK
  5
346
330
344
100
AcDbEntity
  8
0
100
AcDbBlockBegin
  2
block 96
 70
     0
 10
0.0
 20
0.0
 30
0.0
  3
block 96
  1

  0
MTEXT
  5
348
330
344
100
AcDbEntity
  8
_U+6807_U+6CE8
 62
     1
420
 16711680
100
AcDbMText
 10
398.0411945581436
 20
192.6725751161575
 30
0.0
 40
11.12583933711217
 41
0.0
 46
0.0
 71
     7
 72
     1
  1
\fMyriad Pro|b0|i0|c0|p34;\W1;R10
 11
0.9434249960949311
 21
-0.3315860020315682
 31
0.0
 73
     1
 44
1.0
  0
ENDBLK
  5
347
330
344
100
AcDbEntity
  8
0
100
AcDbBlockEnd
  0
BLOCK
  5
34B
330
349
100
AcDbEntity
  8
0
100
AcDbBlockBegin
  2
block 97
 70
     0
 10
0.0
 20
0.0
 30
0.0
  3
block 97
  1

  0
POLYLINE
  5
34D
330
349
100
AcDbEntity
  8
_U+6807_U+6CE8
 62
     1
420
 16711680
370
     9
100
AcDb2dPolyline
 66
     1
 10
0.0
 20
0.0
 30
0.0
  0
VERTEX
  5
34E
330
34D
100
AcDbEntity
  8
_U+6807_U+6CE8
 62
     1
420
 16711680
370
     9
100
AcDbVertex
100
AcDb2dVertex
 10
376.7899637814371
 20
196.9370484447572
 30
0.0
  0
VERTEX
  5
34F
330
34D
100
AcDbEntity
  8
_U+6807_U+6CE8
 62
     1
420
 16711680
370
     9
100
AcDbVertex
100
AcDb2dVertex
 10
382.494526266044
 20
194.9320632540803
 30
0.0
  0
SEQEND
  5
350
330
34D
100
AcDbEntity
  8
_U+6807_U+6CE8
 62
     1
420
 16711680
370
     9
  0
ENDBLK
  5
34C
330
349
100
AcDbEntity
  8
0
100
AcDbBlockEnd
  0
BLOCK
  5
353
330
351
100
AcDbEntity
  8
0
100
AcDbBlockBegin
  2
block 98
 70
     0
 10
0.0
 20
0.0
 30
0.0
  3
block 98
  1

  0
POLYLINE
  5
355
330
351
100
AcDbEntity
  8
_U+6807_U+6CE8
370
     0
100
AcDb2dPolyline
 66
     1
 10
0.0
 20
0.0
 30
0.0
  0
VERTEX
  5
356
330
355
100
AcDbEntity
  8
_U+6807_U+6CE8
370
     0
100
AcDbVertex
100
AcDb2dVertex
 10
389.7409982857098
 20
193.6669935221889
 30
0.0
  0
VERTEX
  5
357
330
355
100
AcDbEntity
  8
_U+6807_U+6CE8
370
     0
100
AcDbVertex
100
AcDb2dVertex
 10
382.494526266044
 20
194.9320632540803
 30
0.0
  0
VERTEX
  5
358
330
355
100
AcDbEntity
  8
_U+6807_U+6CE8
370
     0
100
AcDbVertex
100
AcDb2dVertex
 10
388.9390042094383
 20
191.3851685283462
 30
0.0
  0
VERTEX
  5
359
330
355
100
AcDbEntity
  8
_U+6807_U+6CE8
370
     0
100
AcDbVertex
100
AcDb2dVertex
 10
389.7409982857098
 20
193.6669935221889
 30
0.0
  0
SEQEND
  5
35B
330
355
100
AcDbEntity
  8
_U+6807_U+6CE8
370
     0
  0
HATCH
  5
35A
330
351
100
AcDbEntity
  8
_U+6807_U+6CE8
 62
     1
420
 16711680
100
AcDbHatch
 10
0.0
 20
0.0
 30
0.0
210
0.0
220
0.0
230
1.0
  2
SOLID
 70
     1
 71
     0
 91
        1
 92
        1
 93
        3
 72
     1
 10
389.7409982857098
 20
193.6669935221889
 11
382.494526266044
 21
194.9320632540803
 72
     1
 10
382.494526266044
 20
194.9320632540803
 11
388.9390042094383
 21
191.3851685283462
 72
     1
 10
388.9390042094383
 20
191.3851685283462
 11
389.7409982857098
 21
193.6669935221889
 97
        0
 75
     2
 76
     1
 98
        0
  0
ENDBLK
  5
354
330
351
100
AcDbEntity
  8
0
100
AcDbBlockEnd
  0
BLOCK
  5
35F
330
35D
100
AcDbEntity
  8
0
100
AcDbBlockBegin
  2
block 99
 70
     0
 10
0.0
 20
0.0
 30
0.0
  3
block 99
  1

  0
POLYLINE
  5
361
330
35D
100
AcDbEntity
  8
Defpoints
370
     0
100
AcDb2dPolyline
 66
     1
 10
0.0
 20
0.0
 30
0.0
  0
VERTEX
  5
362
330
361
100
AcDbEntity
  8
Defpoints
370
     0
100
AcDbVertex
100
AcDb2dVertex
 10
116.7839336606403
 20
450.8964267022784
 30
0.0
  0
VERTEX
  5
363
330
361
100
AcDbEntity
  8
Defpoints
370
     0
100
AcDbVertex
100
AcDb2dVertex
 10
116.7839336606403
 20
450.8964267022784
 30
0.0
  0
SEQEND
  5
364
330
361
100
AcDbEntity
  8
Defpoints
370
     0
  0
ENDBLK
  5
360
330
35D
100
AcDbEntity
  8
0
100
AcDbBlockEnd
  0
BLOCK
  5
367
330
365
100
AcDbEntity
  8
0
100
AcDbBlockBegin
  2
block 100
 70
     0
 10
0.0
 20
0.0
 30
0.0
  3
block 100
  1

  0
POLYLINE
  5
369
330
365
100
AcDbEntity
  8
Defpoints
370
     0
100
AcDb2dPolyline
 66
     1
 10
0.0
 20
0.0
 30
0.0
  0
VERTEX
  5
36A
330
369
100
AcDbEntity
  8
Defpoints
370
     0
100
AcDbVertex
100
AcDb2dVertex
 10
382.83661564471
 20
450.8964267022784
 30
0.0
  0
VERTEX
  5
36B
330
369
100
AcDbEntity
  8
Defpoints
370
     0
100
AcDbVertex
100
AcDb2dVertex
 10
382.83661564471
 20
450.8964267022784
 30
0.0
  0
SEQEND
  5
36C
330
369
100
AcDbEntity
  8
Defpoints
370
     0
  0
ENDBLK
  5
368
330
365
100
AcDbEntity
  8
0
100
AcDbBlockEnd
  0
BLOCK
  5
36F
330
36D
100
AcDbEntity
  8
0
100
AcDbBlockBegin
  2
block 101
 70
     0
 10
0.0
 20
0.0
 30
0.0
  3
block 101
  1

  0
POLYLINE
  5
371
330
36D
100
AcDbEntity
  8
Defpoints
370
     0
100
AcDb2dPolyline
 66
     1
 10
0.0
 20
0.0
 30
0.0
  0
VERTEX
  5
372
330
371
100
AcDbEntity
  8
Defpoints
370
     0
100
AcDbVertex
100
AcDb2dVertex
 10
382.83661564471
 20
485.0561318236223
 30
0.0
  0
VERTEX
  5
373
330
371
100
AcDbEntity
  8
Defpoints
370
     0
100
AcDbVertex
100
AcDb2dVertex
 10
382.83661564471
 20
485.0561318236223
 30
0.0
  0
SEQEND
  5
374
330
371
100
AcDbEntity
  8
Defpoints
370
     0
  0
ENDBLK
  5
370
330
36D
100
AcDbEntity
  8
0
100
AcDbBlockEnd
  0
BLOCK
  5
377
330
375
100
AcDbEntity
  8
0
100
AcDbBlockBegin
  2
block 102
 70
     0
 10
0.0
 20
0.0
 30
0.0
  3
block 102
  1

  0
POLYLINE
  5
379
330
375
100
AcDbEntity
  8
Defpoints
370
     0
100
AcDb2dPolyline
 66
     1
 10
0.0
 20
0.0
 30
0.0
  0
VERTEX
  5
37A
330
379
100
AcDbEntity
  8
Defpoints
370
     0
100
AcDbVertex
100
AcDb2dVertex
 10
128.8772373871889
 20
438.8031229757307
 30
0.0
  0
VERTEX
  5
37B
330
379
100
AcDbEntity
  8
Defpoints
370
     0
100
AcDbVertex
100
AcDb2dVertex
 10
128.8772373871889
 20
438.8031229757307
 30
0.0
  0
SEQEND
  5
37C
330
379
100
AcDbEntity
  8
Defpoints
370
     0
  0
ENDBLK
  5
378
330
375
100
AcDbEntity
  8
0
100
AcDbBlockEnd
  0
BLOCK
  5
37F
330
37D
100
AcDbEntity
  8
0
100
AcDbBlockBegin
  2
block 103
 70
     0
 10
0.0
 20
0.0
 30
0.0
  3
block 103
  1

  0
POLYLINE
  5
381
330
37D
100
AcDbEntity
  8
Defpoints
370
     0
100
AcDb2dPolyline
 66
     1
 10
0.0
 20
0.0
 30
0.0
  0
VERTEX
  5
382
330
381
100
AcDbEntity
  8
Defpoints
370
     0
100
AcDbVertex
100
AcDb2dVertex
 10
370.7433119181624
 20
438.8031229757307
 30
0.0
  0
VERTEX
  5
383
330
381
100
AcDbEntity
  8
Defpoints
370
     0
100
AcDbVertex
100
AcDb2dVertex
 10
370.7433119181624
 20
438.8031229757307
 30
0.0
  0
SEQEND
  5
384
330
381
100
AcDbEntity
  8
Defpoints
370
     0
  0
ENDBLK
  5
380
330
37D
100
AcDbEntity
  8
0
100
AcDbBlockEnd
  0
BLOCK
  5
387
330
385
100
AcDbEntity
  8
0
100
AcDbBlockBegin
  2
block 104
 70
     0
 10
0.0
 20
0.0
 30
0.0
  3
block 104
  1

  0
POLYLINE
  5
389
330
385
100
AcDbEntity
  8
Defpoints
370
     0
100
AcDb2dPolyline
 66
     1
 10
0.0
 20
0.0
 30
0.0
  0
VERTEX
  5
38A
330
389
100
AcDbEntity
  8
Defpoints
370
     0
100
AcDbVertex
100
AcDb2dVertex
 10
370.7433119181624
 20
466.317944170758
 30
0.0
  0
VERTEX
  5
38B
330
389
100
AcDbEntity
  8
Defpoints
370
     0
100
AcDbVertex
100
AcDb2dVertex
 10
370.7433119181624
 20
466.317944170758
 30
0.0
  0
SEQEND
  5
38C
330
389
100
AcDbEntity
  8
Defpoints
370
     0
  0
ENDBLK
  5
388
330
385
100
AcDbEntity
  8
0
100
AcDbBlockEnd
  0
BLOCK
  5
38F
330
38D
100
AcDbEntity
  8
0
100
AcDbBlockBegin
  2
block 105
 70
     0
 10
0.0
 20
0.0
 30
0.0
  3
block 105
  1

  0
POLYLINE
  5
391
330
38D
100
AcDbEntity
  8
Defpoints
370
     0
100
AcDb2dPolyline
 66
     1
 10
0.0
 20
0.0
 30
0.0
  0
VERTEX
  5
392
330
391
100
AcDbEntity
  8
Defpoints
370
     0
100
AcDbVertex
100
AcDb2dVertex
 10
122.830585523915
 20
456.9430785655532
 30
0.0
  0
VERTEX
  5
393
330
391
100
AcDbEntity
  8
Defpoints
370
     0
100
AcDbVertex
100
AcDb2dVertex
 10
122.830585523915
 20
456.9430785655532
 30
0.0
  0
SEQEND
  5
394
330
391
100
AcDbEntity
  8
Defpoints
370
     0
  0
ENDBLK
  5
390
330
38D
100
AcDbEntity
  8
0
100
AcDbBlockEnd
  0
BLOCK
  5
397
330
395
100
AcDbEntity
  8
0
100
AcDbBlockBegin
  2
block 106
 70
     0
 10
0.0
 20
0.0
 30
0.0
  3
block 106
  1

  0
POLYLINE
  5
399
330
395
100
AcDbEntity
  8
Defpoints
370
     0
100
AcDb2dPolyline
 66
     1
 10
0.0
 20
0.0
 30
0.0
  0
VERTEX
  5
39A
330
399
100
AcDbEntity
  8
Defpoints
370
     0
100
AcDbVertex
100
AcDb2dVertex
 10
122.830585523915
 20
190.8903965814825
 30
0.0
  0
VERTEX
  5
39B
330
399
100
AcDbEntity
  8
Defpoints
370
     0
100
AcDbVertex
100
AcDb2dVertex
 10
122.830585523915
 20
190.8903965814825
 30
0.0
  0
SEQEND
  5
39C
330
399
100
AcDbEntity
  8
Defpoints
370
     0
  0
ENDBLK
  5
398
330
395
100
AcDbEntity
  8
0
100
AcDbBlockEnd
  0
BLOCK
  5
39F
330
39D
100
AcDbEntity
  8
0
100
AcDbBlockBegin
  2
block 107
 70
     0
 10
0.0
 20
0.0
 30
0.0
  3
block 107
  1

  0
POLYLINE
  5
3A1
330
39D
100
AcDbEntity
  8
Defpoints
370
     0
100
AcDb2dPolyline
 66
     1
 10
0.0
 20
0.0
 30
0.0
  0
VERTEX
  5
3A2
330
3A1
100
AcDbEntity
  8
Defpoints
370
     0
100
AcDbVertex
100
AcDb2dVertex
 10
84.22371543160807
 20
190.8903965814825
 30
0.0
  0
VERTEX
  5
3A3
330
3A1
100
AcDbEntity
  8
Defpoints
370
     0
100
AcDbVertex
100
AcDb2dVertex
 10
84.22371543160807
 20
190.8903965814825
 30
0.0
  0
SEQEND
  5
3A4
330
3A1
100
AcDbEntity
  8
Defpoints
370
     0
  0
ENDBLK
  5
3A0
330
39D
100
AcDbEntity
  8
0
100
AcDbBlockEnd
  0
BLOCK
  5
3A7
330
3A5
100
AcDbEntity
  8
0
100
AcDbBlockBegin
  2
block 108
 70
     0
 10
0.0
 20
0.0
 30
0.0
  3
block 108
  1

  0
POLYLINE
  5
3A9
330
3A5
100
AcDbEntity
  8
Defpoints
370
     0
100
AcDb2dPolyline
 66
     1
 10
0.0
 20
0.0
 30
0.0
  0
VERTEX
  5
3AA
330
3A9
100
AcDbEntity
  8
Defpoints
370
     0
100
AcDbVertex
100
AcDb2dVertex
 10
134.9238892504636
 20
444.8497748390046
 30
0.0
  0
VERTEX
  5
3AB
330
3A9
100
AcDbEntity
  8
Defpoints
370
     0
100
AcDbVertex
100
AcDb2dVertex
 10
134.9238892504636
 20
444.8497748390046
 30
0.0
  0
SEQEND
  5
3AC
330
3A9
100
AcDbEntity
  8
Defpoints
370
     0
  0
ENDBLK
  5
3A8
330
3A5
100
AcDbEntity
  8
0
100
AcDbBlockEnd
  0
BLOCK
  5
3AF
330
3AD
100
AcDbEntity
  8
0
100
AcDbBlockBegin
  2
block 109
 70
     0
 10
0.0
 20
0.0
 30
0.0
  3
block 109
  1

  0
POLYLINE
  5
3B1
330
3AD
100
AcDbEntity
  8
Defpoints
370
     0
100
AcDb2dPolyline
 66
     1
 10
0.0
 20
0.0
 30
0.0
  0
VERTEX
  5
3B2
330
3B1
100
AcDbEntity
  8
Defpoints
370
     0
100
AcDbVertex
100
AcDb2dVertex
 10
134.9238892504636
 20
202.983700308032
 30
0.0
  0
VERTEX
  5
3B3
330
3B1
100
AcDbEntity
  8
Defpoints
370
     0
100
AcDbVertex
100
AcDb2dVertex
 10
134.9238892504636
 20
202.983700308032
 30
0.0
  0
SEQEND
  5
3B4
330
3B1
100
AcDbEntity
  8
Defpoints
370
     0
  0
ENDBLK
  5
3B0
330
3AD
100
AcDbEntity
  8
0
100
AcDbBlockEnd
  0
BLOCK
  5
3B7
330
3B5
100
AcDbEntity
  8
0
100
AcDbBlockBegin
  2
block 110
 70
     0
 10
0.0
 20
0.0
 30
0.0
  3
block 110
  1

  0
POLYLINE
  5
3B9
330
3B5
100
AcDbEntity
  8
Defpoints
370
     0
100
AcDb2dPolyline
 66
     1
 10
0.0
 20
0.0
 30
0.0
  0
VERTEX
  5
3BA
330
3B9
100
AcDbEntity
  8
Defpoints
370
     0
100
AcDbVertex
100
AcDb2dVertex
 10
104.8207254821937
 20
202.983700308032
 30
0.0
  0
VERTEX
  5
3BB
330
3B9
100
AcDbEntity
  8
Defpoints
370
     0
100
AcDbVertex
100
AcDb2dVertex
 10
104.8207254821937
 20
202.983700308032
 30
0.0
  0
SEQEND
  5
3BC
330
3B9
100
AcDbEntity
  8
Defpoints
370
     0
  0
ENDBLK
  5
3B8
330
3B5
100
AcDbEntity
  8
0
100
AcDbBlockEnd
  0
BLOCK
  5
3BF
330
3BD
100
AcDbEntity
  8
0
100
AcDbBlockBegin
  2
block 111
 70
     0
 10
0.0
 20
0.0
 30
0.0
  3
block 111
  1

  0
POLYLINE
  5
3C1
330
3BD
100
AcDbEntity
  8
Defpoints
370
     0
100
AcDb2dPolyline
 66
     1
 10
0.0
 20
0.0
 30
0.0
  0
VERTEX
  5
3C2
330
3C1
100
AcDbEntity
  8
Defpoints
370
     0
100
AcDbVertex
100
AcDb2dVertex
 10
116.7839336606403
 20
114.5840528090484
 30
0.0
  0
VERTEX
  5
3C3
330
3C1
100
AcDbEntity
  8
Defpoints
370
     0
100
AcDbVertex
100
AcDb2dVertex
 10
116.7839336606403
 20
114.5840528090484
 30
0.0
  0
SEQEND
  5
3C4
330
3C1
100
AcDbEntity
  8
Defpoints
370
     0
  0
ENDBLK
  5
3C0
330
3BD
100
AcDbEntity
  8
0
100
AcDbBlockEnd
  0
BLOCK
  5
3C7
330
3C5
100
AcDbEntity
  8
0
100
AcDbBlockBegin
  2
block 112
 70
     0
 10
0.0
 20
0.0
 30
0.0
  3
block 112
  1

  0
POLYLINE
  5
3C9
330
3C5
100
AcDbEntity
  8
Defpoints
370
     0
100
AcDb2dPolyline
 66
     1
 10
0.0
 20
0.0
 30
0.0
  0
VERTEX
  5
3CA
330
3C9
100
AcDbEntity
  8
Defpoints
370
     0
100
AcDbVertex
100
AcDb2dVertex
 10
134.9238892504636
 20
2.720993338472908
 30
0.0
  0
VERTEX
  5
3CB
330
3C9
100
AcDbEntity
  8
Defpoints
370
     0
100
AcDbVertex
100
AcDb2dVertex
 10
134.9238892504636
 20
2.720993338472908
 30
0.0
  0
SEQEND
  5
3CC
330
3C9
100
AcDbEntity
  8
Defpoints
370
     0
  0
ENDBLK
  5
3C8
330
3C5
100
AcDbEntity
  8
0
100
AcDbBlockEnd
  0
BLOCK
  5
3CF
330
3CD
100
AcDbEntity
  8
0
100
AcDbBlockBegin
  2
block 113
 70
     0
 10
0.0
 20
0.0
 30
0.0
  3
block 113
  1

  0
POLYLINE
  5
3D1
330
3CD
100
AcDbEntity
  8
Defpoints
370
     0
100
AcDb2dPolyline
 66
     1
 10
0.0
 20
0.0
 30
0.0
  0
VERTEX
  5
3D2
330
3D1
100
AcDbEntity
  8
Defpoints
370
     0
100
AcDbVertex
100
AcDb2dVertex
 10
99.5048824047717
 20
2.720993338472908
 30
0.0
  0
VERTEX
  5
3D3
330
3D1
100
AcDbEntity
  8
Defpoints
370
     0
100
AcDbVertex
100
AcDb2dVertex
 10
99.5048824047717
 20
2.720993338472908
 30
0.0
  0
SEQEND
  5
3D4
330
3D1
100
AcDbEntity
  8
Defpoints
370
     0
  0
ENDBLK
  5
3D0
330
3CD
100
AcDbEntity
  8
0
100
AcDbBlockEnd
  0
BLOCK
  5
3D7
330
3D5
100
AcDbEntity
  8
0
100
AcDbBlockBegin
  2
block 114
 70
     0
 10
0.0
 20
0.0
 30
0.0
  3
block 114
  1

  0
POLYLINE
  5
3D9
330
3D5
100
AcDbEntity
  8
Defpoints
370
     0
100
AcDb2dPolyline
 66
     1
 10
0.0
 20
0.0
 30
0.0
  0
VERTEX
  5
3DA
330
3D9
100
AcDbEntity
  8
Defpoints
370
     0
100
AcDbVertex
100
AcDb2dVertex
 10
249.8102746526756
 20
372.2899524797122
 30
0.0
  0
VERTEX
  5
3DB
330
3D9
100
AcDbEntity
  8
Defpoints
370
     0
100
AcDbVertex
100
AcDb2dVertex
 10
249.8102746526756
 20
372.2899524797122
 30
0.0
  0
SEQEND
  5
3DC
330
3D9
100
AcDbEntity
  8
Defpoints
370
     0
  0
ENDBLK
  5
3D8
330
3D5
100
AcDbEntity
  8
0
100
AcDbBlockEnd
  0
BLOCK
  5
3DF
330
3DD
100
AcDbEntity
  8
0
100
AcDbBlockBegin
  2
block 115
 70
     0
 10
0.0
 20
0.0
 30
0.0
  3
block 115
  1

  0
POLYLINE
  5
3E1
330
3DD
100
AcDbEntity
  8
Defpoints
370
     0
100
AcDb2dPolyline
 66
     1
 10
0.0
 20
0.0
 30
0.0
  0
VERTEX
  5
3E2
330
3E1
100
AcDbEntity
  8
Defpoints
370
     0
100
AcDbVertex
100
AcDb2dVertex
 10
249.8102746526756
 20
444.8497748390046
 30
0.0
  0
VERTEX
  5
3E3
330
3E1
100
AcDbEntity
  8
Defpoints
370
     0
100
AcDbVertex
100
AcDb2dVertex
 10
249.8102746526756
 20
444.8497748390046
 30
0.0
  0
SEQEND
  5
3E4
330
3E1
100
AcDbEntity
  8
Defpoints
370
     0
  0
ENDBLK
  5
3E0
330
3DD
100
AcDbEntity
  8
0
100
AcDbBlockEnd
  0
BLOCK
  5
3E7
330
3E5
100
AcDbEntity
  8
0
100
AcDbBlockBegin
  2
block 116
 70
     0
 10
0.0
 20
0.0
 30
0.0
  3
block 116
  1

  0
POLYLINE
  5
3E9
330
3E5
100
AcDbEntity
  8
Defpoints
370
     0
100
AcDb2dPolyline
 66
     1
 10
0.0
 20
0.0
 30
0.0
  0
VERTEX
  5
3EA
330
3E9
100
AcDbEntity
  8
Defpoints
370
     0
100
AcDbVertex
100
AcDb2dVertex
 10
210.5127072410432
 20
444.8497748390046
 30
0.0
  0
VERTEX
  5
3EB
330
3E9
100
AcDbEntity
  8
Defpoints
370
     0
100
AcDbVertex
100
AcDb2dVertex
 10
210.5127072410432
 20
444.8497748390046
 30
0.0
  0
SEQEND
  5
3EC
330
3E9
100
AcDbEntity
  8
Defpoints
370
     0
  0
ENDBLK
  5
3E8
330
3E5
100
AcDbEntity
  8
0
100
AcDbBlockEnd
  0
BLOCK
  5
3EF
330
3ED
100
AcDbEntity
  8
0
100
AcDbBlockBegin
  2
block 117
 70
     0
 10
0.0
 20
0.0
 30
0.0
  3
block 117
  1

  0
POLYLINE
  5
3F1
330
3ED
100
AcDbEntity
  8
Defpoints
370
     0
100
AcDb2dPolyline
 66
     1
 10
0.0
 20
0.0
 30
0.0
  0
VERTEX
  5
3F2
330
3F1
100
AcDbEntity
  8
Defpoints
370
     0
100
AcDbVertex
100
AcDb2dVertex
 10
116.7839336606403
 20
323.9167375735178
 30
0.0
  0
VERTEX
  5
3F3
330
3F1
100
AcDbEntity
  8
Defpoints
370
     0
100
AcDbVertex
100
AcDb2dVertex
 10
116.7839336606403
 20
323.9167375735178
 30
0.0
  0
SEQEND
  5
3F4
330
3F1
100
AcDbEntity
  8
Defpoints
370
     0
  0
ENDBLK
  5
3F0
330
3ED
100
AcDbEntity
  8
0
100
AcDbBlockEnd
  0
BLOCK
  5
3F7
330
3F5
100
AcDbEntity
  8
0
100
AcDbBlockBegin
  2
block 118
 70
     0
 10
0.0
 20
0.0
 30
0.0
  3
block 118
  1

  0
POLYLINE
  5
3F9
330
3F5
100
AcDbEntity
  8
Defpoints
370
     0
100
AcDb2dPolyline
 66
     1
 10
0.0
 20
0.0
 30
0.0
  0
VERTEX
  5
3FA
330
3F9
100
AcDbEntity
  8
Defpoints
370
     0
100
AcDbVertex
100
AcDb2dVertex
 10
128.8772373871889
 20
323.9167375735178
 30
0.0
  0
VERTEX
  5
3FB
330
3F9
100
AcDbEntity
  8
Defpoints
370
     0
100
AcDbVertex
100
AcDb2dVertex
 10
128.8772373871889
 20
323.9167375735178
 30
0.0
  0
SEQEND
  5
3FC
330
3F9
100
AcDbEntity
  8
Defpoints
370
     0
  0
ENDBLK
  5
3F8
330
3F5
100
AcDbEntity
  8
0
100
AcDbBlockEnd
  0
BLOCK
  5
3FF
330
3FD
100
AcDbEntity
  8
0
100
AcDbBlockBegin
  2
block 119
 70
     0
 10
0.0
 20
0.0
 30
0.0
  3
block 119
  1

  0
POLYLINE
  5
401
330
3FD
100
AcDbEntity
  8
Defpoints
370
     0
100
AcDb2dPolyline
 66
     1
 10
0.0
 20
0.0
 30
0.0
  0
VERTEX
  5
402
330
401
100
AcDbEntity
  8
Defpoints
370
     0
100
AcDbVertex
100
AcDb2dVertex
 10
128.8772373871889
 20
306.344152637228
 30
0.0
  0
VERTEX
  5
403
330
401
100
AcDbEntity
  8
Defpoints
370
     0
100
AcDbVertex
100
AcDb2dVertex
 10
128.8772373871889
 20
306.344152637228
 30
0.0
  0
SEQEND
  5
404
330
401
100
AcDbEntity
  8
Defpoints
370
     0
  0
ENDBLK
  5
400
330
3FD
100
AcDbEntity
  8
0
100
AcDbBlockEnd
  0
BLOCK
  5
407
330
405
100
AcDbEntity
  8
0
100
AcDbBlockBegin
  2
block 120
 70
     0
 10
0.0
 20
0.0
 30
0.0
  3
block 120
  1

  0
POLYLINE
  5
409
330
405
100
AcDbEntity
  8
Defpoints
370
     0
100
AcDb2dPolyline
 66
     1
 10
0.0
 20
0.0
 30
0.0
  0
VERTEX
  5
40A
330
409
100
AcDbEntity
  8
Defpoints
370
     0
100
AcDbVertex
100
AcDb2dVertex
 10
139.7682791383031
 20
212.6488995829386
 30
0.0
  0
VERTEX
  5
40B
330
409
100
AcDbEntity
  8
Defpoints
370
     0
100
AcDbVertex
100
AcDb2dVertex
 10
139.7682791383031
 20
212.6488995829386
 30
0.0
  0
SEQEND
  5
40C
330
409
100
AcDbEntity
  8
Defpoints
370
     0
  0
ENDBLK
  5
408
330
405
100
AcDbEntity
  8
0
100
AcDbBlockEnd
  0
BLOCK
  5
40F
330
40D
100
AcDbEntity
  8
0
100
AcDbBlockBegin
  2
block 121
 70
     0
 10
0.0
 20
0.0
 30
0.0
  3
block 121
  1

  0
POLYLINE
  5
411
330
40D
100
AcDbEntity
  8
Defpoints
370
     0
100
AcDb2dPolyline
 66
     1
 10
0.0
 20
0.0
 30
0.0
  0
VERTEX
  5
412
330
411
100
AcDbEntity
  8
Defpoints
370
     0
100
AcDbVertex
100
AcDb2dVertex
 10
134.9238892504654
 20
209.0303521713086
 30
0.0
  0
VERTEX
  5
413
330
411
100
AcDbEntity
  8
Defpoints
370
     0
100
AcDbVertex
100
AcDb2dVertex
 10
134.9238892504654
 20
209.0303521713086
 30
0.0
  0
SEQEND
  5
414
330
411
100
AcDbEntity
  8
Defpoints
370
     0
  0
ENDBLK
  5
410
330
40D
100
AcDbEntity
  8
0
100
AcDbBlockEnd
  0
BLOCK
  5
417
330
415
100
AcDbEntity
  8
0
100
AcDbBlockBegin
  2
block 122
 70
     0
 10
0.0
 20
0.0
 30
0.0
  3
block 122
  1

  0
POLYLINE
  5
419
330
415
100
AcDbEntity
  8
Defpoints
370
     0
100
AcDb2dPolyline
 66
     1
 10
0.0
 20
0.0
 30
0.0
  0
VERTEX
  5
41A
330
419
100
AcDbEntity
  8
Defpoints
370
     0
100
AcDbVertex
100
AcDb2dVertex
 10
382.494526266044
 20
194.9320632540803
 30
0.0
  0
VERTEX
  5
41B
330
419
100
AcDbEntity
  8
Defpoints
370
     0
100
AcDbVertex
100
AcDb2dVertex
 10
382.494526266044
 20
194.9320632540803
 30
0.0
  0
SEQEND
  5
41C
330
419
100
AcDbEntity
  8
Defpoints
370
     0
  0
ENDBLK
  5
418
330
415
100
AcDbEntity
  8
0
100
AcDbBlockEnd
  0
BLOCK
  5
41F
330
41D
100
AcDbEntity
  8
0
100
AcDbBlockBegin
  2
block 123
 70
     0
 10
0.0
 20
0.0
 30
0.0
  3
block 123
  1

  0
POLYLINE
  5
421
330
41D
100
AcDbEntity
  8
Defpoints
370
     0
100
AcDb2dPolyline
 66
     1
 10
0.0
 20
0.0
 30
0.0
  0
VERTEX
  5
422
330
421
100
AcDbEntity
  8
Defpoints
370
     0
100
AcDbVertex
100
AcDb2dVertex
 10
376.7899637814371
 20
196.9370484447572
 30
0.0
  0
VERTEX
  5
423
330
421
100
AcDbEntity
  8
Defpoints
370
     0
100
AcDbVertex
100
AcDb2dVertex
 10
376.7899637814371
 20
196.9370484447572
 30
0.0
  0
SEQEND
  5
424
330
421
100
AcDbEntity
  8
Defpoints
370
     0
  0
ENDBLK
  5
420
330
41D
100
AcDbEntity
  8
0
100
AcDbBlockEnd
  0
ENDSEC
  0
SECTION
  2
ENTITIES
  0
INSERT
  5
42
330
1F
100
AcDbEntity
  8
_U+5916_U+6846_U+7EBF1
100
AcDbBlockReference
  2
block 2
 10
0.0
 20
0.0
 30
0.0
  0
INSERT
  5
4A
330
1F
100
AcDbEntity
  8
_U+5916_U+6846_U+7EBF1
100
AcDbBlockReference
  2
block 3
 10
0.0
 20
0.0
 30
0.0
  0
INSERT
  5
52
330
1F
100
AcDbEntity
  8
_U+5916_U+6846_U+7EBF1
100
AcDbBlockReference
  2
block 4
 10
0.0
 20
0.0
 30
0.0
  0
INSERT
  5
5A
330
1F
100
AcDbEntity
  8
_U+5916_U+6846_U+7EBF1
100
AcDbBlockReference
  2
block 5
 10
0.0
 20
0.0
 30
0.0
  0
INSERT
  5
62
330
1F
100
AcDbEntity
  8
_U+5916_U+6846_U+7EBF1
100
AcDbBlockReference
  2
block 6
 10
0.0
 20
0.0
 30
0.0
  0
INSERT
  5
67
330
1F
100
AcDbEntity
  8
_U+5916_U+6846_U+7EBF1
100
AcDbBlockReference
  2
block 7
 10
0.0
 20
0.0
 30
0.0
  0
INSERT
  5
6C
330
1F
100
AcDbEntity
  8
_U+5916_U+6846_U+7EBF1
100
AcDbBlockReference
  2
block 8
 10
0.0
 20
0.0
 30
0.0
  0
INSERT
  5
71
330
1F
100
AcDbEntity
  8
_U+5916_U+6846_U+7EBF1
100
AcDbBlockReference
  2
block 9
 10
0.0
 20
0.0
 30
0.0
  0
INSERT
  5
76
330
1F
100
AcDbEntity
  8
_U+5916_U+6846_U+7EBF1
100
AcDbBlockReference
  2
block 10
 10
0.0
 20
0.0
 30
0.0
  0
INSERT
  5
7E
330
1F
100
AcDbEntity
  8
_U+5916_U+6846_U+7EBF1
100
AcDbBlockReference
  2
block 11
 10
0.0
 20
0.0
 30
0.0
  0
INSERT
  5
83
330
1F
100
AcDbEntity
  8
_U+5916_U+6846_U+7EBF1
100
AcDbBlockReference
  2
block 12
 10
0.0
 20
0.0
 30
0.0
  0
INSERT
  5
8B
330
1F
100
AcDbEntity
  8
_U+5916_U+6846_U+7EBF1
100
AcDbBlockReference
  2
block 13
 10
0.0
 20
0.0
 30
0.0
  0
INSERT
  5
90
330
1F
100
AcDbEntity
  8
_U+5916_U+6846_U+7EBF1
100
AcDbBlockReference
  2
block 14
 10
0.0
 20
0.0
 30
0.0
  0
INSERT
  5
98
330
1F
100
AcDbEntity
  8
_U+5916_U+6846_U+7EBF1
100
AcDbBlockReference
  2
block 15
 10
0.0
 20
0.0
 30
0.0
  0
INSERT
  5
9D
330
1F
100
AcDbEntity
  8
_U+5916_U+6846_U+7EBF1
100
AcDbBlockReference
  2
block 16
 10
0.0
 20
0.0
 30
0.0
  0
INSERT
  5
A5
330
1F
100
AcDbEntity
  8
_U+5916_U+6846_U+7EBF1
100
AcDbBlockReference
  2
block 17
 10
0.0
 20
0.0
 30
0.0
  0
INSERT
  5
AA
330
1F
100
AcDbEntity
  8
_U+5916_U+6846_U+7EBF1
100
AcDbBlockReference
  2
block 18
 10
0.0
 20
0.0
 30
0.0
  0
INSERT
  5
B2
330
1F
100
AcDbEntity
  8
_U+5916_U+6846_U+7EBF1
100
AcDbBlockReference
  2
block 19
 10
0.0
 20
0.0
 30
0.0
  0
INSERT
  5
B7
330
1F
100
AcDbEntity
  8
_U+5916_U+6846_U+7EBF1
100
AcDbBlockReference
  2
block 20
 10
0.0
 20
0.0
 30
0.0
  0
INSERT
  5
BF
330
1F
100
AcDbEntity
  8
_U+5916_U+6846_U+7EBF1
100
AcDbBlockReference
  2
block 21
 10
0.0
 20
0.0
 30
0.0
  0
INSERT
  5
C4
330
1F
100
AcDbEntity
  8
_U+5916_U+6846_U+7EBF1
100
AcDbBlockReference
  2
block 22
 10
0.0
 20
0.0
 30
0.0
  0
INSERT
  5
CC
330
1F
100
AcDbEntity
  8
_U+5916_U+6846_U+7EBF1
100
AcDbBlockReference
  2
block 23
 10
0.0
 20
0.0
 30
0.0
  0
INSERT
  5
D1
330
1F
100
AcDbEntity
  8
_U+5916_U+6846_U+7EBF1
100
AcDbBlockReference
  2
block 24
 10
0.0
 20
0.0
 30
0.0
  0
INSERT
  5
D9
330
1F
100
AcDbEntity
  8
_U+5916_U+6846_U+7EBF1
100
AcDbBlockReference
  2
block 25
 10
0.0
 20
0.0
 30
0.0
  0
INSERT
  5
DE
330
1F
100
AcDbEntity
  8
_U+5916_U+6846_U+7EBF1
100
AcDbBlockReference
  2
block 26
 10
0.0
 20
0.0
 30
0.0
  0
INSERT
  5
E7
330
1F
100
AcDbEntity
  8
_U+5916_U+6846_U+7EBF1
100
AcDbBlockReference
  2
block 27
 10
0.0
 20
0.0
 30
0.0
  0
INSERT
  5
F0
330
1F
100
AcDbEntity
  8
_U+5916_U+6846_U+7EBF1
100
AcDbBlockReference
  2
block 28
 10
0.0
 20
0.0
 30
0.0
  0
INSERT
  5
F9
330
1F
100
AcDbEntity
  8
_U+5916_U+6846_U+7EBF1
100
AcDbBlockReference
  2
block 29
 10
0.0
 20
0.0
 30
0.0
  0
INSERT
  5
102
330
1F
100
AcDbEntity
  8
_U+5916_U+6846_U+7EBF1
100
AcDbBlockReference
  2
block 30
 10
0.0
 20
0.0
 30
0.0
  0
INSERT
  5
10B
330
1F
100
AcDbEntity
  8
_U+5916_U+6846_U+7EBF1
100
AcDbBlockReference
  2
block 31
 10
0.0
 20
0.0
 30
0.0
  0
INSERT
  5
114
330
1F
100
AcDbEntity
  8
_U+5916_U+6846_U+7EBF1
100
AcDbBlockReference
  2
block 32
 10
0.0
 20
0.0
 30
0.0
  0
INSERT
  5
11D
330
1F
100
AcDbEntity
  8
_U+5916_U+6846_U+7EBF1
100
AcDbBlockReference
  2
block 33
 10
0.0
 20
0.0
 30
0.0
  0
INSERT
  5
125
330
1F
100
AcDbEntity
  8
_U+5916_U+6846_U+7EBF1
100
AcDbBlockReference
  2
block 34
 10
0.0
 20
0.0
 30
0.0
  0
INSERT
  5
12A
330
1F
100
AcDbEntity
  8
_U+5916_U+6846_U+7EBF1
100
AcDbBlockReference
  2
block 35
 10
0.0
 20
0.0
 30
0.0
  0
INSERT
  5
130
330
1F
100
AcDbEntity
  8
_U+5916_U+6846_U+7EBF4
100
AcDbBlockReference
  2
block 36
 10
0.0
 20
0.0
 30
0.0
  0
INSERT
  5
13B
330
1F
100
AcDbEntity
  8
_U+5916_U+6846_U+7EBF4
100
AcDbBlockReference
  2
block 37
 10
0.0
 20
0.0
 30
0.0
  0
INSERT
  5
146
330
1F
100
AcDbEntity
  8
_U+5916_U+6846_U+7EBF4
100
AcDbBlockReference
  2
block 38
 10
0.0
 20
0.0
 30
0.0
  0
INSERT
  5
151
330
1F
100
AcDbEntity
  8
_U+5916_U+6846_U+7EBF4
100
AcDbBlockReference
  2
block 39
 10
0.0
 20
0.0
 30
0.0
  0
INSERT
  5
15C
330
1F
100
AcDbEntity
  8
_U+5916_U+6846_U+7EBF4
100
AcDbBlockReference
  2
block 40
 10
0.0
 20
0.0
 30
0.0
  0
INSERT
  5
167
330
1F
100
AcDbEntity
  8
_U+5916_U+6846_U+7EBF4
100
AcDbBlockReference
  2
block 41
 10
0.0
 20
0.0
 30
0.0
  0
INSERT
  5
172
330
1F
100
AcDbEntity
  8
_U+5916_U+6846_U+7EBF4
100
AcDbBlockReference
  2
block 42
 10
0.0
 20
0.0
 30
0.0
  0
INSERT
  5
17D
330
1F
100
AcDbEntity
  8
_U+5916_U+6846_U+7EBF4
100
AcDbBlockReference
  2
block 43
 10
0.0
 20
0.0
 30
0.0
  0
INSERT
  5
18A
330
1F
100
AcDbEntity
  8
_U+5916_U+6846_U+7EBF4
100
AcDbBlockReference
  2
block 44
 10
0.0
 20
0.0
 30
0.0
  0
INSERT
  5
195
330
1F
100
AcDbEntity
  8
_U+5916_U+6846_U+7EBF4
100
AcDbBlockReference
  2
block 45
 10
0.0
 20
0.0
 30
0.0
  0
INSERT
  5
1A3
330
1F
100
AcDbEntity
  8
_U+6807_U+6CE8
100
AcDbBlockReference
  2
block 46
 10
0.0
 20
0.0
 30
0.0
  0
INSERT
  5
1AB
330
1F
100
AcDbEntity
  8
_U+6807_U+6CE8
100
AcDbBlockReference
  2
block 47
 10
0.0
 20
0.0
 30
0.0
  0
INSERT
  5
1B3
330
1F
100
AcDbEntity
  8
_U+6807_U+6CE8
100
AcDbBlockReference
  2
block 48
 10
0.0
 20
0.0
 30
0.0
  0
INSERT
  5
1BB
330
1F
100
AcDbEntity
  8
_U+6807_U+6CE8
100
AcDbBlockReference
  2
block 49
 10
0.0
 20
0.0
 30
0.0
  0
INSERT
  5
1C6
330
1F
100
AcDbEntity
  8
_U+6807_U+6CE8
100
AcDbBlockReference
  2
block 50
 10
0.0
 20
0.0
 30
0.0
  0
INSERT
  5
1D1
330
1F
100
AcDbEntity
  8
_U+6807_U+6CE8
100
AcDbBlockReference
  2
block 51
 10
0.0
 20
0.0
 30
0.0
  0
INSERT
  5
1D6
330
1F
100
AcDbEntity
  8
_U+6807_U+6CE8
100
AcDbBlockReference
  2
block 52
 10
0.0
 20
0.0
 30
0.0
  0
INSERT
  5
1DE
330
1F
100
AcDbEntity
  8
_U+6807_U+6CE8
100
AcDbBlockReference
  2
block 53
 10
0.0
 20
0.0
 30
0.0
  0
INSERT
  5
1E6
330
1F
100
AcDbEntity
  8
_U+6807_U+6CE8
100
AcDbBlockReference
  2
block 54
 10
0.0
 20
0.0
 30
0.0
  0
INSERT
  5
1EE
330
1F
100
AcDbEntity
  8
_U+6807_U+6CE8
100
AcDbBlockReference
  2
block 55
 10
0.0
 20
0.0
 30
0.0
  0
INSERT
  5
1F9
330
1F
100
AcDbEntity
  8
_U+6807_U+6CE8
100
AcDbBlockReference
  2
block 56
 10
0.0
 20
0.0
 30
0.0
  0
INSERT
  5
204
330
1F
100
AcDbEntity
  8
_U+6807_U+6CE8
100
AcDbBlockReference
  2
block 57
 10
0.0
 20
0.0
 30
0.0
  0
INSERT
  5
209
330
1F
100
AcDbEntity
  8
_U+6807_U+6CE8
100
AcDbBlockReference
  2
block 58
 10
0.0
 20
0.0
 30
0.0
  0
INSERT
  5
211
330
1F
100
AcDbEntity
  8
_U+6807_U+6CE8
100
AcDbBlockReference
  2
block 59
 10
0.0
 20
0.0
 30
0.0
  0
INSERT
  5
219
330
1F
100
AcDbEntity
  8
_U+6807_U+6CE8
100
AcDbBlockReference
  2
block 60
 10
0.0
 20
0.0
 30
0.0
  0
INSERT
  5
221
330
1F
100
AcDbEntity
  8
_U+6807_U+6CE8
100
AcDbBlockReference
  2
block 61
 10
0.0
 20
0.0
 30
0.0
  0
INSERT
  5
22C
330
1F
100
AcDbEntity
  8
_U+6807_U+6CE8
100
AcDbBlockReference
  2
block 62
 10
0.0
 20
0.0
 30
0.0
  0
INSERT
  5
237
330
1F
100
AcDbEntity
  8
_U+6807_U+6CE8
100
AcDbBlockReference
  2
block 63
 10
0.0
 20
0.0
 30
0.0
  0
INSERT
  5
23C
330
1F
100
AcDbEntity
  8
_U+6807_U+6CE8
100
AcDbBlockReference
  2
block 64
 10
0.0
 20
0.0
 30
0.0
  0
INSERT
  5
244
330
1F
100
AcDbEntity
  8
_U+6807_U+6CE8
100
AcDbBlockReference
  2
block 65
 10
0.0
 20
0.0
 30
0.0
  0
INSERT
  5
24C
330
1F
100
AcDbEntity
  8
_U+6807_U+6CE8
100
AcDbBlockReference
  2
block 66
 10
0.0
 20
0.0
 30
0.0
  0
INSERT
  5
254
330
1F
100
AcDbEntity
  8
_U+6807_U+6CE8
100
AcDbBlockReference
  2
block 67
 10
0.0
 20
0.0
 30
0.0
  0
INSERT
  5
25F
330
1F
100
AcDbEntity
  8
_U+6807_U+6CE8
100
AcDbBlockReference
  2
block 68
 10
0.0
 20
0.0
 30
0.0
  0
INSERT
  5
26A
330
1F
100
AcDbEntity
  8
_U+6807_U+6CE8
100
AcDbBlockReference
  2
block 69
 10
0.0
 20
0.0
 30
0.0
  0
INSERT
  5
26F
330
1F
100
AcDbEntity
  8
_U+6807_U+6CE8
100
AcDbBlockReference
  2
block 70
 10
0.0
 20
0.0
 30
0.0
  0
INSERT
  5
277
330
1F
100
AcDbEntity
  8
_U+6807_U+6CE8
100
AcDbBlockReference
  2
block 71
 10
0.0
 20
0.0
 30
0.0
  0
INSERT
  5
27F
330
1F
100
AcDbEntity
  8
_U+6807_U+6CE8
100
AcDbBlockReference
  2
block 72
 10
0.0
 20
0.0
 30
0.0
  0
INSERT
  5
287
330
1F
100
AcDbEntity
  8
_U+6807_U+6CE8
100
AcDbBlockReference
  2
block 73
 10
0.0
 20
0.0
 30
0.0
  0
INSERT
  5
292
330
1F
100
AcDbEntity
  8
_U+6807_U+6CE8
100
AcDbBlockReference
  2
block 74
 10
0.0
 20
0.0
 30
0.0
  0
INSERT
  5
29D
330
1F
100
AcDbEntity
  8
_U+6807_U+6CE8
100
AcDbBlockReference
  2
block 75
 10
0.0
 20
0.0
 30
0.0
  0
INSERT
  5
2A2
330
1F
100
AcDbEntity
  8
_U+6807_U+6CE8
100
AcDbBlockReference
  2
block 76
 10
0.0
 20
0.0
 30
0.0
  0
INSERT
  5
2AA
330
1F
100
AcDbEntity
  8
_U+6807_U+6CE8
100
AcDbBlockReference
  2
block 77
 10
0.0
 20
0.0
 30
0.0
  0
INSERT
  5
2B2
330
1F
100
AcDbEntity
  8
_U+6807_U+6CE8
100
AcDbBlockReference
  2
block 78
 10
0.0
 20
0.0
 30
0.0
  0
INSERT
  5
2BA
330
1F
100
AcDbEntity
  8
_U+6807_U+6CE8
100
AcDbBlockReference
  2
block 79
 10
0.0
 20
0.0
 30
0.0
  0
INSERT
  5
2C5
330
1F
100
AcDbEntity
  8
_U+6807_U+6CE8
100
AcDbBlockReference
  2
block 80
 10
0.0
 20
0.0
 30
0.0
  0
INSERT
  5
2D0
330
1F
100
AcDbEntity
  8
_U+6807_U+6CE8
100
AcDbBlockReference
  2
block 81
 10
0.0
 20
0.0
 30
0.0
  0
INSERT
  5
2D5
330
1F
100
AcDbEntity
  8
_U+6807_U+6CE8
100
AcDbBlockReference
  2
block 82
 10
0.0
 20
0.0
 30
0.0
  0
INSERT
  5
2DD
330
1F
100
AcDbEntity
  8
_U+6807_U+6CE8
100
AcDbBlockReference
  2
block 83
 10
0.0
 20
0.0
 30
0.0
  0
INSERT
  5
2E5
330
1F
100
AcDbEntity
  8
_U+6807_U+6CE8
100
AcDbBlockReference
  2
block 84
 10
0.0
 20
0.0
 30
0.0
  0
INSERT
  5
2ED
330
1F
100
AcDbEntity
  8
_U+6807_U+6CE8
100
AcDbBlockReference
  2
block 85
 10
0.0
 20
0.0
 30
0.0
  0
INSERT
  5
2F5
330
1F
100
AcDbEntity
  8
_U+6807_U+6CE8
100
AcDbBlockReference
  2
block 86
 10
0.0
 20
0.0
 30
0.0
  0
INSERT
  5
2FD
330
1F
100
AcDbEntity
  8
_U+6807_U+6CE8
100
AcDbBlockReference
  2
block 87
 10
0.0
 20
0.0
 30
0.0
  0
INSERT
  5
308
330
1F
100
AcDbEntity
  8
_U+6807_U+6CE8
100
AcDbBlockReference
  2
block 88
 10
0.0
 20
0.0
 30
0.0
  0
INSERT
  5
313
330
1F
100
AcDbEntity
  8
_U+6807_U+6CE8
100
AcDbBlockReference
  2
block 89
 10
0.0
 20
0.0
 30
0.0
  0
INSERT
  5
318
330
1F
100
AcDbEntity
  8
_U+6807_U+6CE8
100
AcDbBlockReference
  2
block 90
 10
0.0
 20
0.0
 30
0.0
  0
INSERT
  5
320
330
1F
100
AcDbEntity
  8
_U+6807_U+6CE8
100
AcDbBlockReference
  2
block 91
 10
0.0
 20
0.0
 30
0.0
  0
INSERT
  5
325
330
1F
100
AcDbEntity
  8
_U+6807_U+6CE8
100
AcDbBlockReference
  2
block 92
 10
0.0
 20
0.0
 30
0.0
  0
INSERT
  5
32D
330
1F
100
AcDbEntity
  8
_U+6807_U+6CE8
100
AcDbBlockReference
  2
block 93
 10
0.0
 20
0.0
 30
0.0
  0
INSERT
  5
338
330
1F
100
AcDbEntity
  8
_U+6807_U+6CE8
100
AcDbBlockReference
  2
block 94
 10
0.0
 20
0.0
 30
0.0
  0
INSERT
  5
33D
330
1F
100
AcDbEntity
  8
_U+6807_U+6CE8
100
AcDbBlockReference
  2
block 95
 10
0.0
 20
0.0
 30
0.0
  0
INSERT
  5
345
330
1F
100
AcDbEntity
  8
_U+6807_U+6CE8
100
AcDbBlockReference
  2
block 96
 10
0.0
 20
0.0
 30
0.0
  0
INSERT
  5
34A
330
1F
100
AcDbEntity
  8
_U+6807_U+6CE8
100
AcDbBlockReference
  2
block 97
 10
0.0
 20
0.0
 30
0.0
  0
INSERT
  5
352
330
1F
100
AcDbEntity
  8
_U+6807_U+6CE8
100
AcDbBlockReference
  2
block 98
 10
0.0
 20
0.0
 30
0.0
  0
INSERT
  5
35E
330
1F
100
AcDbEntity
  8
Defpoints
100
AcDbBlockReference
  2
block 99
 10
0.0
 20
0.0
 30
0.0
  0
INSERT
  5
366
330
1F
100
AcDbEntity
  8
Defpoints
100
AcDbBlockReference
  2
block 100
 10
0.0
 20
0.0
 30
0.0
  0
INSERT
  5
36E
330
1F
100
AcDbEntity
  8
Defpoints
100
AcDbBlockReference
  2
block 101
 10
0.0
 20
0.0
 30
0.0
  0
INSERT
  5
376
330
1F
100
AcDbEntity
  8
Defpoints
100
AcDbBlockReference
  2
block 102
 10
0.0
 20
0.0
 30
0.0
  0
INSERT
  5
37E
330
1F
100
AcDbEntity
  8
Defpoints
100
AcDbBlockReference
  2
block 103
 10
0.0
 20
0.0
 30
0.0
  0
INSERT
  5
386
330
1F
100
AcDbEntity
  8
Defpoints
100
AcDbBlockReference
  2
block 104
 10
0.0
 20
0.0
 30
0.0
  0
INSERT
  5
38E
330
1F
100
AcDbEntity
  8
Defpoints
100
AcDbBlockReference
  2
block 105
 10
0.0
 20
0.0
 30
0.0
  0
INSERT
  5
396
330
1F
100
AcDbEntity
  8
Defpoints
100
AcDbBlockReference
  2
block 106
 10
0.0
 20
0.0
 30
0.0
  0
INSERT
  5
39E
330
1F
100
AcDbEntity
  8
Defpoints
100
AcDbBlockReference
  2
block 107
 10
0.0
 20
0.0
 30
0.0
  0
INSERT
  5
3A6
330
1F
100
AcDbEntity
  8
Defpoints
100
AcDbBlockReference
  2
block 108
 10
0.0
 20
0.0
 30
0.0
  0
INSERT
  5
3AE
330
1F
100
AcDbEntity
  8
Defpoints
100
AcDbBlockReference
  2
block 109
 10
0.0
 20
0.0
 30
0.0
  0
INSERT
  5
3B6
330
1F
100
AcDbEntity
  8
Defpoints
100
AcDbBlockReference
  2
block 110
 10
0.0
 20
0.0
 30
0.0
  0
INSERT
  5
3BE
330
1F
100
AcDbEntity
  8
Defpoints
100
AcDbBlockReference
  2
block 111
 10
0.0
 20
0.0
 30
0.0
  0
INSERT
  5
3C6
330
1F
100
AcDbEntity
  8
Defpoints
100
AcDbBlockReference
  2
block 112
 10
0.0
 20
0.0
 30
0.0
  0
INSERT
  5
3CE
330
1F
100
AcDbEntity
  8
Defpoints
100
AcDbBlockReference
  2
block 113
 10
0.0
 20
0.0
 30
0.0
  0
INSERT
  5
3D6
330
1F
100
AcDbEntity
  8
Defpoints
100
AcDbBlockReference
  2
block 114
 10
0.0
 20
0.0
 30
0.0
  0
INSERT
  5
3DE
330
1F
100
AcDbEntity
  8
Defpoints
100
AcDbBlockReference
  2
block 115
 10
0.0
 20
0.0
 30
0.0
  0
INSERT
  5
3E6
330
1F
100
AcDbEntity
  8
Defpoints
100
AcDbBlockReference
  2
block 116
 10
0.0
 20
0.0
 30
0.0
  0
INSERT
  5
3EE
330
1F
100
AcDbEntity
  8
Defpoints
100
AcDbBlockReference
  2
block 117
 10
0.0
 20
0.0
 30
0.0
  0
INSERT
  5
3F6
330
1F
100
AcDbEntity
  8
Defpoints
100
AcDbBlockReference
  2
block 118
 10
0.0
 20
0.0
 30
0.0
  0
INSERT
  5
3FE
330
1F
100
AcDbEntity
  8
Defpoints
100
AcDbBlockReference
  2
block 119
 10
0.0
 20
0.0
 30
0.0
  0
INSERT
  5
406
330
1F
100
AcDbEntity
  8
Defpoints
100
AcDbBlockReference
  2
block 120
 10
0.0
 20
0.0
 30
0.0
  0
INSERT
  5
40E
330
1F
100
AcDbEntity
  8
Defpoints
100
AcDbBlockReference
  2
block 121
 10
0.0
 20
0.0
 30
0.0
  0
INSERT
  5
416
330
1F
100
AcDbEntity
  8
Defpoints
100
AcDbBlockReference
  2
block 122
 10
0.0
 20
0.0
 30
0.0
  0
INSERT
  5
41E
330
1F
100
AcDbEntity
  8
Defpoints
100
AcDbBlockReference
  2
block 123
 10
0.0
 20
0.0
 30
0.0
  0
ENDSEC
  0
SECTION
  2
OBJECTS
  0
DICTIONARY
  5
C
330
0
100
AcDbDictionary
281
     1
  3
ACAD_GROUP
350
D
  3
ACAD_LAYOUT
350
1A
  3
ACAD_MATERIAL
350
3B
  3
ACAD_MLEADERSTYLE
350
426
  3
ACAD_MLINESTYLE
350
17
  3
ACAD_PLOTSETTINGS
350
19
  3
ACAD_PLOTSTYLENAME
350
E
  3
ACAD_TABLESTYLE
350
425
  3
ACAD_VISUALSTYLE
350
2A
  0
SUN
  5
3F
330
29
100
AcDbSun
 90
        1
290
     0
 63
     7
421
 16777215
 40
1.0
291
     1
 91
  2455826
 92
 54000000
292
     0
 70
     2
 71
   256
280
     1
  0
DICTIONARY
  5
D
102
{ACAD_REACTORS
330
C
102
}
330
C
100
AcDbDictionary
281
     1
  0
DICTIONARY
  5
1A
102
{ACAD_REACTORS
330
C
102
}
330
C
100
AcDbDictionary
281
     1
  3
Layout1
350
1E
  3
Layout2
350
26
  3
Model
350
22
  0
DICTIONARY
  5
3B
102
{ACAD_REACTORS
330
C
102
}
330
C
100
AcDbDictionary
281
     1
  3
ByBlock
350
3D
  3
ByLayer
350
3C
  3
Global
350
3E
  0
DICTIONARY
  5
426
102
{ACAD_REACTORS
330
C
102
}
330
C
100
AcDbDictionary
281
     1
  0
DICTIONARY
  5
17
102
{ACAD_REACTORS
330
C
102
}
330
C
100
AcDbDictionary
281
     1
  3
Standard
350
18
  0
DICTIONARY
  5
19
102
{ACAD_REACTORS
330
C
102
}
330
C
100
AcDbDictionary
281
     1
  0
ACDBDICTIONARYWDFLT
  5
E
102
{ACAD_REACTORS
330
C
102
}
330
C
100
AcDbDictionary
281
     1
  3
Normal
350
F
100
AcDbDictionaryWithDefault
340
F
  0
DICTIONARY
  5
425
102
{ACAD_REACTORS
330
C
102
}
330
C
100
AcDbDictionary
281
     1
  0
DICTIONARY
  5
2A
102
{ACAD_REACTORS
330
C
102
}
330
C
100
AcDbDictionary
281
     1
  3
2dWireframe
350
2F
  3
3D Hidden
350
31
  3
3dWireframe
350
30
  3
Basic
350
32
  3
Brighten
350
36
  3
ColorChange
350
3A
  3
Conceptual
350
34
  3
Dim
350
35
  3
Facepattern
350
39
  3
Flat
350
2B
  3
FlatWithEdges
350
2C
  3
Gouraud
350
2D
  3
GouraudWithEdges
350
2E
  3
Linepattern
350
38
  3
Realistic
350
33
  3
Thicken
350
37
  0
LAYOUT
  5
1E
102
{ACAD_REACTORS
330
1A
102
}
330
1A
100
AcDbPlotSettings
  1

  2
none_device
  4

  6

 40
0.0
 41
0.0
 42
0.0
 43
0.0
 44
0.0
 45
0.0
 46
0.0
 47
0.0
 48
0.0
 49
0.0
140
0.0
141
0.0
142
1.0
143
1.0
 70
   688
 72
     0
 73
     0
 74
     5
  7

 75
    16
 76
     0
 77
     2
 78
   300
147
1.0
148
0.0
149
0.0
100
AcDbLayout
  1
Layout1
 70
     1
 71
     1
 10
0.0
 20
0.0
 11
12.0
 21
9.0
 12
0.0
 22
0.0
 32
0.0
 14
1.000000000000000E+20
 24
1.000000000000000E+20
 34
1.000000000000000E+20
 15
-1.000000000000000E+20
 25
-1.000000000000000E+20
 35
-1.000000000000000E+20
146
0.0
 13
0.0
 23
0.0
 33
0.0
 16
1.0
 26
0.0
 36
0.0
 17
0.0
 27
1.0
 37
0.0
 76
     0
330
1B
  0
LAYOUT
  5
26
102
{ACAD_REACTORS
330
1A
102
}
330
1A
100
AcDbPlotSettings
  1

  2
none_device
  4

  6

 40
0.0
 41
0.0
 42
0.0
 43
0.0
 44
0.0
 45
0.0
 46
0.0
 47
0.0
 48
0.0
 49
0.0
140
0.0
141
0.0
142
1.0
143
1.0
 70
   688
 72
     0
 73
     0
 74
     5
  7

 75
    16
 76
     0
 77
     2
 78
   300
147
1.0
148
0.0
149
0.0
100
AcDbLayout
  1
Layout2
 70
     1
 71
     2
 10
0.0
 20
0.0
 11
0.0
 21
0.0
 12
0.0
 22
0.0
 32
0.0
 14
0.0
 24
0.0
 34
0.0
 15
0.0
 25
0.0
 35
0.0
146
0.0
 13
0.0
 23
0.0
 33
0.0
 16
1.0
 26
0.0
 36
0.0
 17
0.0
 27
1.0
 37
0.0
 76
     0
330
23
  0
LAYOUT
  5
22
102
{ACAD_REACTORS
330
1A
102
}
330
1A
100
AcDbPlotSettings
  1

  2
none_device
  4

  6

 40
0.0
 41
0.0
 42
0.0
 43
0.0
 44
0.0
 45
0.0
 46
0.0
 47
0.0
 48
0.0
 49
0.0
140
0.0
141
0.0
142
1.0
143
1.0
 70
  1712
 72
     0
 73
     0
 74
     0
  7

 75
     0
 76
     0
 77
     2
 78
   300
147
1.0
148
0.0
149
0.0
100
AcDbLayout
  1
Model
 70
     1
 71
     0
 10
0.0
 20
0.0
 11
12.0
 21
9.0
 12
0.0
 22
0.0
 32
0.0
 14
1.000000000000000E+20
 24
1.000000000000000E+20
 34
1.000000000000000E+20
 15
-1.000000000000000E+20
 25
-1.000000000000000E+20
 35
-1.000000000000000E+20
146
0.0
 13
0.0
 23
0.0
 33
0.0
 16
1.0
 26
0.0
 36
0.0
 17
0.0
 27
1.0
 37
0.0
 76
     0
330
1F
331
29
  0
MATERIAL
  5
3D
102
{ACAD_REACTORS
330
3B
102
}
330
3B
100
AcDbMaterial
  1
ByBlock
 72
     1
 94
      127
  0
MATERIAL
  5
3C
102
{ACAD_REACTORS
330
3B
102
}
330
3B
100
AcDbMaterial
  1
ByLayer
 72
     1
 94
      127
  0
MATERIAL
  5
3E
102
{ACAD_REACTORS
330
3B
102
}
330
3B
100
AcDbMaterial
  1
Global
 72
     1
 94
      127
  0
MLINESTYLE
  5
18
102
{ACAD_REACTORS
330
17
102
}
330
17
100
AcDbMlineStyle
  2
Standard
 70
     0
  3

 62
   256
 51
90.0
 52
90.0
 71
     2
 49
0.5
 62
   256
  6
BYLAYER
 49
-0.5
 62
   256
  6
BYLAYER
  0
ACDBPLACEHOLDER
  5
F
102
{ACAD_REACTORS
330
E
102
}
330
E
  0
VISUALSTYLE
  5
2F
102
{ACAD_REACTORS
330
2A
102
}
330
2A
100
AcDbVisualStyle
  2
2dWireframe
 70
     4
177
     2
291
     0
 71
     0
176
     1
 72
     2
176
     1
 73
     0
176
     1
 90
        0
176
     1
 40
-0.6
176
     1
 41
-30.0
176
     1
 62
     5
 63
     7
421
 16777215
176
     1
 74
     1
176
     1
 91
        4
176
     1
 64
     7
176
     1
 65
   257
176
     1
 75
     1
176
     1
175
     1
176
     1
 42
1.0
176
     1
 92
        0
176
     1
 66
   257
176
     1
 43
1.0
176
     1
 76
     1
176
     1
 77
     6
176
     1
 78
     2
176
     1
 67
     7
176
     1
 79
     5
176
     1
170
     0
176
     1
171
     0
176
     1
290
     0
176
     1
 93
        1
176
     1
 44
0.0
176
     1
173
     0
176
     1
  0
VISUALSTYLE
  5
31
102
{ACAD_REACTORS
330
2A
102
}
330
2A
100
AcDbVisualStyle
  2
3D Hidden
 70
     6
177
     2
291
     0
 71
     1
176
     1
 72
     2
176
     1
 73
     2
176
     1
 90
        0
176
     1
 40
-0.6
176
     1
 41
-30.0
176
     1
 62
     5
 63
     7
421
 16777215
176
     1
 74
     2
176
     1
 91
        2
176
     1
 64
     7
176
     1
 65
   257
176
     1
 75
     2
176
     1
175
     1
176
     1
 42
40.0
176
     1
 92
        0
176
     1
 66
   257
176
     1
 43
1.0
176
     1
 76
     1
176
     1
 77
     6
176
     1
 78
     2
176
     1
 67
     7
176
     1
 79
     3
176
     1
170
     0
176
     1
171
     0
176
     1
290
     0
176
     1
 93
        1
176
     1
 44
0.0
176
     1
173
     0
176
     1
  0
VISUALSTYLE
  5
30
102
{ACAD_REACTORS
330
2A
102
}
330
2A
100
AcDbVisualStyle
  2
3dWireframe
 70
     5
177
     2
291
     0
 71
     0
176
     1
 72
     2
176
     1
 73
     0
176
     1
 90
        0
176
     1
 40
-0.6
176
     1
 41
-30.0
176
     1
 62
     5
 63
     7
421
 16777215
176
     1
 74
     1
176
     1
 91
        4
176
     1
 64
     7
176
     1
 65
   257
176
     1
 75
     1
176
     1
175
     1
176
     1
 42
1.0
176
     1
 92
        0
176
     1
 66
   257
176
     1
 43
1.0
176
     1
 76
     1
176
     1
 77
     6
176
     1
 78
     2
176
     1
 67
     7
176
     1
 79
     5
176
     1
170
     0
176
     1
171
     0
176
     1
290
     0
176
     1
 93
        1
176
     1
 44
0.0
176
     1
173
     0
176
     1
  0
VISUALSTYLE
  5
32
102
{ACAD_REACTORS
330
2A
102
}
330
2A
100
AcDbVisualStyle
  2
Basic
 70
     7
177
     2
291
     1
 71
     1
176
     1
 72
     0
176
     1
 73
     1
176
     1
 90
        0
176
     1
 40
-0.6
176
     1
 41
-30.0
176
     1
 62
     5
 63
     7
421
 16777215
176
     1
 74
     0
176
     1
 91
        4
176
     1
 64
     7
176
     1
 65
   257
176
     1
 75
     1
176
     1
175
     1
176
     1
 42
1.0
176
     1
 92
        8
176
     1
 66
     7
176
     1
 43
1.0
176
     1
 76
     1
176
     1
 77
     6
176
     1
 78
     2
176
     1
 67
     7
176
     1
 79
     5
176
     1
170
     0
176
     1
171
     0
176
     1
290
     0
176
     1
 93
        1
176
     1
 44
0.0
176
     1
173
     0
176
     1
  0
VISUALSTYLE
  5
36
102
{ACAD_REACTORS
330
2A
102
}
330
2A
100
AcDbVisualStyle
  2
Brighten
 70
    12
177
     2
291
     1
 71
     2
176
     1
 72
     2
176
     1
 73
     0
176
     1
 90
        0
176
     1
 40
-0.6
176
     1
 41
-30.0
176
     1
 62
     5
 63
     7
421
 16777215
176
     1
 74
     1
176
     1
 91
        4
176
     1
 64
     7
176
     1
 65
   257
176
     1
 75
     1
176
     1
175
     1
176
     1
 42
1.0
176
     1
 92
        8
176
     1
 66
     7
176
     1
 43
1.0
176
     1
 76
     1
176
     1
 77
     6
176
     1
 78
     2
176
     1
 67
     7
176
     1
 79
     5
176
     1
170
     0
176
     1
171
     0
176
     1
290
     0
176
     1
 93
        1
176
     1
 44
50.0
176
     1
173
     0
176
     1
  0
VISUALSTYLE
  5
3A
102
{ACAD_REACTORS
330
2A
102
}
330
2A
100
AcDbVisualStyle
  2
ColorChange
 70
    16
177
     2
291
     1
 71
     2
176
     1
 72
     2
176
     1
 73
     3
176
     1
 90
        0
176
     1
 40
-0.6
176
     1
 41
-30.0
176
     1
 62
     5
 63
     8
421
  8421504
176
     1
 74
     1
176
     1
 91
        4
176
     1
 64
     7
176
     1
 65
   257
176
     1
 75
     1
176
     1
175
     1
176
     1
 42
1.0
176
     1
 92
        8
176
     1
 66
     8
424
  8421504
176
     1
 43
1.0
176
     1
 76
     1
176
     1
 77
     6
176
     1
 78
     2
176
     1
 67
     7
176
     1
 79
     5
176
     1
170
     0
176
     1
171
     0
176
     1
290
     0
176
     1
 93
        1
176
     1
 44
0.0
176
     1
173
     0
176
     1
  0
VISUALSTYLE
  5
34
102
{ACAD_REACTORS
330
2A
102
}
330
2A
100
AcDbVisualStyle
  2
Conceptual
 70
     9
177
     2
291
     0
 71
     3
176
     1
 72
     2
176
     1
 73
     0
176
     1
 90
        0
176
     1
 40
-0.6
176
     1
 41
-30.0
176
     1
 62
     5
 63
     7
421
 16777215
176
     1
 74
     2
176
     1
 91
        2
176
     1
 64
     7
176
     1
 65
   257
176
     1
 75
     1
176
     1
175
     1
176
     1
 42
40.0
176
     1
 92
        8
176
     1
 66
     7
176
     1
 43
1.0
176
     1
 76
     1
176
     1
 77
     6
176
     1
 78
     2
176
     1
 67
     7
176
     1
 79
     3
176
     1
170
     0
176
     1
171
     0
176
     1
290
     0
176
     1
 93
        1
176
     1
 44
0.0
176
     1
173
     0
176
     1
  0
VISUALSTYLE
  5
35
102
{ACAD_REACTORS
330
2A
102
}
330
2A
100
AcDbVisualStyle
  2
Dim
 70
    11
177
     2
291
     1
 71
     2
176
     1
 72
     2
176
     1
 73
     0
176
     1
 90
        0
176
     1
 40
-0.6
176
     1
 41
-30.0
176
     1
 62
     5
 63
     7
421
 16777215
176
     1
 74
     1
176
     1
 91
        4
176
     1
 64
     7
176
     1
 65
   257
176
     1
 75
     1
176
     1
175
     1
176
     1
 42
1.0
176
     1
 92
        8
176
     1
 66
     7
176
     1
 43
1.0
176
     1
 76
     1
176
     1
 77
     6
176
     1
 78
     2
176
     1
 67
     7
176
     1
 79
     5
176
     1
170
     0
176
     1
171
     0
176
     1
290
     0
176
     1
 93
        1
176
     1
 44
-50.0
176
     1
173
     0
176
     1
  0
VISUALSTYLE
  5
39
102
{ACAD_REACTORS
330
2A
102
}
330
2A
100
AcDbVisualStyle
  2
Facepattern
 70
    15
177
     2
291
     1
 71
     2
176
     1
 72
     2
176
     1
 73
     0
176
     1
 90
        0
176
     1
 40
-0.6
176
     1
 41
-30.0
176
     1
 62
     5
 63
     7
421
 16777215
176
     1
 74
     1
176
     1
 91
        4
176
     1
 64
     7
176
     1
 65
   257
176
     1
 75
     1
176
     1
175
     1
176
     1
 42
1.0
176
     1
 92
        8
176
     1
 66
     7
176
     1
 43
1.0
176
     1
 76
     1
176
     1
 77
     6
176
     1
 78
     2
176
     1
 67
     7
176
     1
 79
     5
176
     1
170
     0
176
     1
171
     0
176
     1
290
     0
176
     1
 93
        1
176
     1
 44
0.0
176
     1
173
     0
176
     1
  0
VISUALSTYLE
  5
2B
102
{ACAD_REACTORS
330
2A
102
}
330
2A
100
AcDbVisualStyle
  2
Flat
 70
     0
177
     2
291
     1
 71
     2
176
     1
 72
     1
176
     1
 73
     1
176
     1
 90
        2
176
     1
 40
-0.6
176
     1
 41
30.0
176
     1
 62
     5
 63
     7
421
 16777215
176
     1
 74
     0
176
     1
 91
        4
176
     1
 64
     7
176
     1
 65
   257
176
     1
 75
     1
176
     1
175
     1
176
     1
 42
1.0
176
     1
 92
        8
176
     1
 66
     7
176
     1
 43
1.0
176
     1
 76
     1
176
     1
 77
     6
176
     1
 78
     2
176
     1
 67
     7
176
     1
 79
     5
176
     1
170
     0
176
     1
171
     0
176
     1
290
     0
176
     1
 93
       13
176
     1
 44
0.0
176
     1
173
     0
176
     1
  0
VISUALSTYLE
  5
2C
102
{ACAD_REACTORS
330
2A
102
}
330
2A
100
AcDbVisualStyle
  2
FlatWithEdges
 70
     1
177
     2
291
     1
 71
     2
176
     1
 72
     1
176
     1
 73
     1
176
     1
 90
        2
176
     1
 40
-0.6
176
     1
 41
30.0
176
     1
 62
     5
 63
     7
421
 16777215
176
     1
 74
     1
176
     1
 91
        4
176
     1
 64
     7
176
     1
 65
   257
176
     1
 75
     1
176
     1
175
     1
176
     1
 42
1.0
176
     1
 92
        0
176
     1
 66
   257
176
     1
 43
1.0
176
     1
 76
     1
176
     1
 77
     6
176
     1
 78
     2
176
     1
 67
     7
176
     1
 79
     5
176
     1
170
     0
176
     1
171
     0
176
     1
290
     0
176
     1
 93
       13
176
     1
 44
0.0
176
     1
173
     0
176
     1
  0
VISUALSTYLE
  5
2D
102
{ACAD_REACTORS
330
2A
102
}
330
2A
100
AcDbVisualStyle
  2
Gouraud
 70
     2
177
     2
291
     1
 71
     2
176
     1
 72
     2
176
     1
 73
     1
176
     1
 90
        2
176
     1
 40
-0.6
176
     1
 41
30.0
176
     1
 62
     5
 63
     7
421
 16777215
176
     1
 74
     0
176
     1
 91
        4
176
     1
 64
     7
176
     1
 65
   257
176
     1
 75
     1
176
     1
175
     1
176
     1
 42
1.0
176
     1
 92
        0
176
     1
 66
     7
176
     1
 43
1.0
176
     1
 76
     1
176
     1
 77
     6
176
     1
 78
     2
176
     1
 67
     7
176
     1
 79
     5
176
     1
170
     0
176
     1
171
     0
176
     1
290
     0
176
     1
 93
       13
176
     1
 44
0.0
176
     1
173
     0
176
     1
  0
VISUALSTYLE
  5
2E
102
{ACAD_REACTORS
330
2A
102
}
330
2A
100
AcDbVisualStyle
  2
GouraudWithEdges
 70
     3
177
     2
291
     1
 71
     2
176
     1
 72
     2
176
     1
 73
     1
176
     1
 90
        2
176
     1
 40
-0.6
176
     1
 41
30.0
176
     1
 62
     5
 63
     7
421
 16777215
176
     1
 74
     1
176
     1
 91
        4
176
     1
 64
     7
176
     1
 65
   257
176
     1
 75
     1
176
     1
175
     1
176
     1
 42
1.0
176
     1
 92
        0
176
     1
 66
   257
176
     1
 43
1.0
176
     1
 76
     1
176
     1
 77
     6
176
     1
 78
     2
176
     1
 67
     7
176
     1
 79
     5
176
     1
170
     0
176
     1
171
     0
176
     1
290
     0
176
     1
 93
       13
176
     1
 44
0.0
176
     1
173
     0
176
     1
  0
VISUALSTYLE
  5
38
102
{ACAD_REACTORS
330
2A
102
}
330
2A
100
AcDbVisualStyle
  2
Linepattern
 70
    14
177
     2
291
     1
 71
     2
176
     1
 72
     2
176
     1
 73
     0
176
     1
 90
        0
176
     1
 40
-0.6
176
     1
 41
-30.0
176
     1
 62
     5
 63
     7
421
 16777215
176
     1
 74
     1
176
     1
 91
        4
176
     1
 64
     7
176
     1
 65
   257
176
     1
 75
     7
176
     1
175
     7
176
     1
 42
1.0
176
     1
 92
        8
176
     1
 66
     7
176
     1
 43
1.0
176
     1
 76
     1
176
     1
 77
     6
176
     1
 78
     2
176
     1
 67
     7
176
     1
 79
     5
176
     1
170
     0
176
     1
171
     0
176
     1
290
     0
176
     1
 93
        1
176
     1
 44
0.0
176
     1
173
     0
176
     1
  0
VISUALSTYLE
  5
33
102
{ACAD_REACTORS
330
2A
102
}
330
2A
100
AcDbVisualStyle
  2
Realistic
 70
     8
177
     2
291
     0
 71
     2
176
     1
 72
     2
176
     1
 73
     0
176
     1
 90
        0
176
     1
 40
-0.6
176
     1
 41
-30.0
176
     1
 62
     5
 63
     7
421
 16777215
176
     1
 74
     1
176
     1
 91
        0
176
     1
 64
     7
176
     1
 65
   257
176
     1
 75
     1
176
     1
175
     1
176
     1
 42
1.0
176
     1
 92
        8
176
     1
 66
     8
424
  7895160
176
     1
 43
1.0
176
     1
 76
     1
176
     1
 77
     6
176
     1
 78
     2
176
     1
 67
     7
176
     1
 79
     5
176
     1
170
     0
176
     1
171
     0
176
     1
290
     0
176
     1
 93
       13
176
     1
 44
0.0
176
     1
173
     0
176
     1
  0
VISUALSTYLE
  5
37
102
{ACAD_REACTORS
330
2A
102
}
330
2A
100
AcDbVisualStyle
  2
Thicken
 70
    13
177
     2
291
     1
 71
     2
176
     1
 72
     2
176
     1
 73
     0
176
     1
 90
        0
176
     1
 40
-0.6
176
     1
 41
-30.0
176
     1
 62
     5
 63
     7
421
 16777215
176
     1
 74
     1
176
     1
 91
        4
176
     1
 64
     7
176
     1
 65
   257
176
     1
 75
     1
176
     1
175
     1
176
     1
 42
1.0
176
     1
 92
       12
176
     1
 66
     7
176
     1
 43
1.0
176
     1
 76
     1
176
     1
 77
     6
176
     1
 78
     2
176
     1
 67
     7
176
     1
 79
     5
176
     1
170
     0
176
     1
171
     0
176
     1
290
     0
176
     1
 93
        1
176
     1
 44
0.0
176
     1
173
     0
176
     1
  0
ENDSEC
  0
EOF
